Oops, an error
Loading. Please wait.

Cross My Heart Bass Tab

version 1
version 1

Whole song

Interactive

9,341 views 1 this week
no commentswrite comment
1 2 3 4 5
excellent!
x 6
add to favorites
launch autoscroll
font size
0
reset
guitar tuner
Tab Pro tools
  • play this tab
  • loop segment
  • change instrument
  • show fretboard
  • metronome
×
Best way to learn
"Cross My Heart"
Autoscroll
slow
fast
+/-
esc
set tempo
stop
Contributor
MArianas trench
Cross my heart

I hope this help you

The guitar enter first and then the bass

G|--------------------------------|
D|--------------------------------|
A|-5-------2-------5-------2--4---|
E|---2-2-2---3-3-3---2-2-2--3---5-|

Verse
G|-----------------------------------------------|
D|-----------------------------------------------|
A|-5---------------------------------------------|
E|------------55---------77---------33-233-233-2-|

G|------------------------------------------------|
D|------------------------------------------------|
A|-55---------------------------------------------|
E|------------55---------77---------33-233-233-2--|

Prechorus
G|----------------------------------
D|-22222222222222225555555555555555-
A|----------------------------------|
E|----------------------------------|

Chorus

G|------------------------------------------------|
D|------------------------------------------------|
A|-55------------55----------55-------------------|
E|----55--77-33-----55-77-33---55-77-33-000000005-|


G|--------------------------------|
D|--------------------------------|  (X2)
A|-5-------2-------5-------2--4---|
E|---2-2-2---3-3-3---2-2-2--3---5-|

Verse 2

G|------------------------------------------------|
D|------------------------------------------------|
A|-55---------------------------------------------|
E|------------55---------77---------33-233-233-2--|


G|-----------------------------------------------|
D|-----------------------------------------------|
A|-55---------44---------------------------------|
E|---------------55-66-77---77------33-233-233-2-|

Prechorus
G|----------------------------------
D|-22222222222222225555555555555555-
A|----------------------------------|
E|----------------------------------|

Chorus
G|------------------------------------------------|
D|------------------------------------------------|
A|-55------------55----------55-------------------|
E|----55--77-33-----55-77-33---55-77-33-000000005-|

Take me with you...
G|-----------------------|
D|-----------5---------5-|
A|-5-------5---5-----5---|
E|-----------------------|

G|--------------------------------------------------|
D|--------------------------------------------------|
A|-2222222222222222---------------------------------|
E|-----------------33333333333333335555555555555555-|

Chorus
G|-------------------------------------------------------|
D|-------------------------------------------------------|
A|-55------------55----------55--------------------------|
E|----55--77-33-----55-77-33---55-77-33-0000000055555555-|

G|--------------------------------------------------------------------|
D|--------------------------------------------------------------------|
A|---------------------------------55-555-555-555-5-------------------|  (X2)
E|-77-777-777-777-733-333-333-333-3-----------------5555555555555555--|
comments
print report bad tab
I want to post or [tab]
guest
You may want to rate the tab now too:
select rating
Please do not post tabs as comments. Select "correction" instead!