Oops, an error
Loading. Please wait.

Cross My Heart Tab

version 1
version 1

Whole song

Interactive

57,180 views 18 this week
6 commentsread comments
1 2 3 4 5
accurate
x 8
add to favorites
launch autoscroll
font size
0
reset
how to read this tab
guitar tuner
Tab Pro tools
  • play this tab
  • loop segment
  • change instrument
  • show fretboard
  • metronome
×
Best way to learn
"Cross My Heart"
Autoscroll
slow
fast
+/-
esc
set tempo
stop
Contributor
Difficulty
novice
Marianas Trench
Cross My Heart

Guitar one: Standard Tuning
Guitar Two: Standard Tuning
Bass: Standard Tuning
-----
Intro|

Guitar One:
e|---x-----x---x------|
B|---x-----x---x------|
G|---x-----x---x------|
D|-7-x-4-4-x---x-2-2--|
A|-5-x-2-2-x-5-x-2-2--|
E|---x-----x-3-x-0-0--|

Guitar Two:
e|----------------|
B|-5-7-5-3-5-5/7--|
G|----------------|
D|----------------|
A|----------------|
E|----------------|


Verse

Both Guitars
e|---------------------------------------|
B|---------------------------------------|
G|---------------------------------------|
D|-7-7-----------------------------------|
A|-5-5---7-7---9-9---5-5---4/5-5--4/5-5--|
E|-------5-5---7-7---3-3---2/3-3--2/3-3--|

----------
Pre-Chorus|

Both Guitars
e|------------|
B|------------|
G|-2-----4----|
D|-2-----4----|
A|-0-----2----|
E|------------|
Palm Muted Through Whole Pre-Chorus.


------
Chorus|

Both Guitars
e|---x-----x---x------|
B|---x-----x---x------|
G|---x-----x---x------|
D|-7-x-4-4-x---x-2-2--|
A|-5-x-2-2-x-5-x-2-2--|
E|---x-----x-3-x-0-0--|

---------
Interlude|

Both Guitars
e|-------------------------------------|
B|-------------------------------------|
G|-2-----2-7-6/0--2-7-6/0---9---5---7--|
D|-2-----2-7-6/0--2-7-6/0---9---5---7--|
A|-0-----0-5-4/0--0-5-4/0---7---3---5--|
E|-------
Starts off Palm-Muted, then slammin'  on the guitar, Then...

------
Ending|
Both Guitars
e|---x-----x---x------|
B|---x-----x---x------|
G|---x-----x---x------|
D|-7-x-4-4-x---x-2-2--|
A|-5-x-2-2-x-5-x-2-2--|
E|---x-----x-3-x-0-0--|


[Then Nothing]


Tabbed By Brando
comments
print report bad tab
6 comments total. Showing first comments.
+1 reply
nickelback fan wrote on December 23 2008, 09:43 pm

i luv u!

-1 reply
MWebb wrote on January 11 2009, 10:16 pm

pretty close, except the intro, chorus, interlude and ending are off...
what you do have right, is good though.
here's how it should be:

Intro|

Guitar One:
e|---x-----x---x-----x---x-----------|
B|---x-----x---x-----x---x-----------|
G|-7-x-----x---x-----x-7-x-----------| x2
D|-7-x-----x-4-x-----x-7-x-----------|
A|-5-x-4-4-x-2-x-5-5-x-5-x-4-4--2-3--|
E|---x-2-2-x---x-3-3-x---x-2-2-0-0-0-|

Guitar Two:
e|-0-2-0-----0----|
B|-------3-3------|
G|----------------| x3
D|----------------|
A|----------------|
E|----------------|

Chorus|

Both Guitars
e|----x----------x------|
B|----x----------x------|
G|----x----------x------| x3
D|-77-x----------x------|
A|-55-x-77-7--99-x-55-5-|
E|----x-55-5--77-x-33-3-|

e|----------------------|
B|----------------------|
G|----------------------|
D|---------2------------| "cross my heart and hope to die"
A|-22222222-------------|
E|----------------------|

Interlude|

Both Guitars
e|--------------------------------------------------|
B|--------------------------------------------------|
G|--7--------7/-----7/------------------------------|
D|--7-[72x]--7/-----7/-----4----------------2-------|
A|--5--------5/-55--5/-55--2-[16x]--5-------0-[16x]-|
E|--------------33-----33-----------3-[16x]---------|

Ending|

Both Guitars
e|----x----------x------|
B|----x----------x------|
G|----x----------x------| x3
D|-77-x----------x------|
A|-55-x-77-7--99-x-55-5-|
E|----x-55-5--77-x-33-3-|

e|----------------------|
B|----------------------|
G|----------------------|
D|---------222222222----|
A|-22222222-------------|
E|----------------------|

_
e|----x----------x------| |
B|----x----------x------| |
G|----x----------x------| |
D|-22-x-22-2--22-x-22-2-| |
A|-44-x-44-4--44-x-44-4-| |
E|----x----------x------| |
|
e|----x----------x------| |
B|----x----------x------| |
G|----x----------x------| |
D|----x----------x------| |
A|-55-x-55-5--55-x-55-5-| |
E|-33-x-33-3--33-x-33-3-| |
| }2x
e|----x----------x------| |
B|----x----------x------| |
G|----x----------x------| |
D|-55-x-55-5--55-x-55-5-| |
A|-77-x-77-7--77-x-77-7-| |
E|----x----------x------| |
|
e|----x----------x------| |
B|----x----------x------| |
G|----x----------x------| |
D|----x----------x------| |
A|-77-x-77-7--77-x-77-7-| |
E|-55-x-55-5--55-x-55-5-| |
-

and that's it.
have fun!

0 reply
MWebb wrote on January 11 2009, 10:18 pm

im sorry, that last part didn't really make sense... it worked in this box, but got all messed up...
the power chord section after
e|----------------------|
B|----------------------|
G|----------------------|
D|---------222222222----|
A|-22222222-------------|
E|----------------------|

is repeated twice....
i should have just put up a whole tab.. oops!

I want to post or [tab]
guest
You may want to rate the tab now too:
select rating
Please do not post tabs as comments. Select "correction" instead!