Oops, an error
Loading. Please wait.

Cross My Heart Bass Tab

version 2
version 2

Whole song

Interactive

1,375 views 1 this week
no commentswrite comment
1 2 3 4 5
please rate
add to favorites
launch autoscroll
font size
0
reset
guitar tuner
Autoscroll
slow
fast
+/-
esc
set tempo
stop
Help us to improve Ultimate-Guitar.com Take our survey!
×
Author
Difficulty
Band: Marianas Trench
Song: Cross My Heart
Album: Masterpiece Theatre

Bassist - Mike Aylay

G|--------------------------------|
D|--------------------------------|
A|-5-------2-------5--------------|
E|---2-2-2---3-3-3---2-2-2-2~3-4~5|

Verse
G|-------------------------------------------------|
D|-------------------------------------------------|
A|-55----------------------------------------------|
E|------------55---------77---------33-23-3-23-3-2-|

G|------------------------------------------------|
D|------------------------------------------------|
A|-55---------------------------------------------|
E|------------55---------77---------33-23--23--2--|

Prechorus
G|----------------------------------|
D|-22222222222222224444444444444444-|
A|----------------------------------|
E|----------------------------------|

Chorus 1
G|--------------------------------------------|
D|--------------------------------------------|
A|-55------------55----------55---------------|
E|----55--77-33-----55-77-33---55-77-33-00005-|


G|--------------------------------|
D|--------------------------------|(X2)
A|--------------------------------|
E|-5-2-2-2-2-3-3-3-5-2-2-2-2-3-4-5|

Verse 2
G|------------------------------------------------|
D|------------------------------------------------|
A|5~55--------------------------------------------|
E|------------55---------77---------33-23--23--2--|


G|----------------------------------------------|
D|----------------------------------------------|
A|-55---------44--------------------------------|
E|---------------55-66-77--77--------33-23-23-2-|

Prechorus
G|----------------------------------|
D|-22222222222222224444444444444444-|
A|----------------------------------|
E|----------------------------------|

Chorus 2
G|--------------------------------------------|
D|--------------------------------------------|
A|-55------------55----------55---------------|
E|----55--77-33-----55-77-33---55-77-33-00005~|

Take me with you...
G|-----------------------|
D|-----------5---------5-|
A|-5-------5---5-----5---| (play when the guitar slides)
E|-----------------------|

G|--------------------------------------------------|
D|--------------------------------------------------|
A|-2222222222222222---------------------------------|
E|-----------------33333333333333335555555555555555-|

Chorus
G|---------------------------------------------------------|
D|---------------------------------------------------------|
A|-5~55------------55----------55--------------------------|
E|-------55--77-33-----55-77-33---55-77-33-0000000055555555|

G|--------------------------------------------------------------------|
D|--------------------------------------------------------------------|
A|---------------------------------55-555-555-555-5-------------------|(X2)
E|-77-777-777-777-733-333-333-333-3-----------------5555555555555555--|

Legend
~ - Let ring
Suggest correction
What's this?
You can suggest a correction to this tab. Community and Mods will review your correction and vote to approve or reject it.
comments
We did not receive enough feedback on this tab! Please rate:
print report bad tab
1 2 3 4 5
guest
You may want to rate the tab now too:
select rating
Please do not post tabs as comments. Select "correction" instead!