Oops, an error
Loading. Please wait.

Cross My Heart Tab

version 4
version 4

Whole song

Interactive

1,728 views 1 this week
no commentswrite comment
1 2 3 4 5
worth learning
x 1
add to favorites
launch autoscroll
font size
0
reset
how to read this tab
guitar tuner
Tab Pro tools
  • play this tab
  • loop segment
  • change instrument
  • show fretboard
  • metronome
×
Best way to learn
"Cross My Heart"
Autoscroll
slow
fast
+/-
esc
set tempo
stop
Contributor
Band: Marianas Trench
Song: Cross My Heart
Album: Masterpiece Theatre

Guitar 1 - Rhythm (Josh Ramsay)
Guitar 2 - Lead (Matt Webb)

Tabbed by:Bryce (sjkhgsi)
Email: Kalawakagus@hotmail.com

Intro
Guitar 1
E|---------------------------|
B|---------------------------|
G|7------4------7-----4---6--|
D|7--444-4--555-7-444-4-5-6-7|
A|5--444-2--555-5-444-2-5-4-7|
E|---222----333---222---3---5|

Guitar 2
E|-20--0-------20--0------20--0-----|
B|3--33-------3--33------3--33------|
G|----------------------------------|
D|----------------------------------|
A|----------------------------------|
E|----------------------------------|

Verse
E|-----------------------------------------------|
B|-----------------------------------------------|
G|-----------------------------------------------|
D|77----44----4/55-4/55-4-77----44----4/55-4/55-4|
A|55-77-22-55-4/55-4/55-4-55-77-22-55-4/55-4/55-4|
E|---55----33-2/33-2/33-2----55----33-2/33-2/33-2|

Pre-Chorus (palm-muted)
E|-------------|
B|-------------|
G|-------------|
D|-------------|
A|222222-555555|
E|000000-333333|

Chorus 1
Both Guitars
E|-----------|-----------|-----------|------|
B|-----------|-----------|-----------|------|
G|-----------|-----------|-----------|------|
D|77----44---|77----44---|77----44---|2222-7|
A|55-77-22-55|55-77-22-55|55-77-22-55|2222-7|
E|---55----33|---55----33|---55----33|0000-5|

Guitar 1
E|---------------------------|---------------------------|
B|---------------------------|---------------------------|
G|7------4------7-----4---6--|7------4------7-----4---6--|
D|7--444-4--555-7-444-4-5-6-7|7--444-4--555-7-444-4-5-6-7|
A|5--444-2--555-5-444-2-5-4-7|5--444-2--555-5-444-2-5-4-7|
E|---222----333---222---3---5|---222----333---222---3---5|


Guitar 2
E|-20--0-------20--0------20--0-----|-20--0-------20--0------20--0-----|
B|3--33-------3--33------3--33------|3--33-------3--33------3--33------|
G|----------------------------------|----------------------------------|
D|----------------------------------|----------------------------------|
A|----------------------------------|----------------------------------|
E|----------------------------------|----------------------------------|



Verse 2
E|-------------------------------------------------------|
B|-------------------------------------------------------|
G|-------------------------------------------------------|
D|77----44----4/55-4/55-4-77--------------------4/55-4/55|
A|55-77-22-55-4/55-4/55-4-55-77-778899-99----55-4/55-4/55|
E|---55----33-2/33-2/33-2----55-556677-77----33-2/33-2/33|

Pre-Chorus (palm-muted)
E|-------------|
B|-------------|
G|-------------|
D|-------------|
A|222222-555555|
E|000000-333333|

Chorus 2
E|-----------|-----------|-----------|------|
B|-----------|-----------|-----------|------|
G|-----------|-----------|-----------|------|
D|77----22---|77----22---|77----22---|2222-7|
A|55-77-44-55|55-77-44-55|55-77-44-55|2222-7|
E|---55----33|---55----33|---55----33|0000-5|

Outro
E|-------------------|-----------------------------------------|
B|-------------------|-----------------------------------------|
G|-------------------|-----------------------------------------|
D|7777777777777777777|7--7-12-7--7-12-444444-------------------|
A|5555555555555555555|5--5-10-5--5-10-222222-555555-777777-----|
E|-------------------|-----------------------333333-555555-----|

Last Chorus
E|-----------|-----------|-----------|---------|
B|-----------|-----------|-----------|---------|
G|-----------|-----------|-----------|---------|
D|77----44---|77----44---|77----44---|2222-7777|
A|55-77-22-55|55-77-22-55|55-77-22-55|2222-7777|
E|---55----33|---55----33|---55----33|0000-5555|
E|-------------------------------------------------------|
B|-------------------------------------------------------|
G|-------------------------------------------------------|
D|44-444-44-444---------------77-777-77-777--------------|
A|22-222-22-222-55-555-55-555-55-555-55-555-77-777-77-777|
E|--------------33-333-33-333---------------55-555-55-555|

E|----------------------------------------------------|
B|----------------------------------------------------|
G|----------------------------------------------------|
D|44-444-44-444---------------77-777-77-777-----------|
A|22-222-22-222-55-555-55-555-55-555-55-555-7777777777|
E|--------------33-333-33-333---------------5555555555|
Legend
P = Pull off
/ = Slide up
\ = Slide down
comments
We did not receive enough feedback on this tab! Please rate:
print report bad tab
1 2 3 4 5
I want to post or [tab]
guest
You may want to rate the tab now too:
select rating
Please do not post tabs as comments. Select "correction" instead!