Oops, an error
Loading. Please wait.

Desperate Measures Ukulele Chords

895 views 3 this week
no commentswrite comment
1 2 3 4 5
please rate
add to favorites
launch autoscroll
font size
0
reset
transpose
0
reset
display chords
guitar tuner
Tab Pro tools
  • play this tab
  • loop segment
  • change instrument
  • show fretboard
  • metronome
×
Best way to learn
"Desperate Measures"
Autoscroll
slow
fast
+/-
esc
set tempo
stop
Intro:

   A     Abm    B      A      Abm   B      C#
e|-------------------------------------------------|
B|-5------4-----7------5------4-----7------9-------|
G|-6-x3---4-----8-x4---6-x3---4-----8-x2---11-x2---|
D|-7------6-----9------7------6-----9------11------|
A|-------------------------------------------------|
E|-------------------------------------------------|

The chords: A, Abm, B, A, Abm, B, C# repeat for the whole song, but strum pattern changes.

     A      Abm       B          C#   
e|---5-------4--------7----------9---------------------|
B|---5-------4--------7----------9---------------------|
G|---6-------4--------8----------9---------------------|
D|---7-------6--------9----------11--------------------|
A|---7-------6--------9----------11--------------------|
E|---5-------4--------7----------9---------------------|
comments
We did not receive enough feedback on this tab! Please rate:
print report bad tab
1 2 3 4 5
I want to post or [tab]
guest
You may want to rate the tab now too:
select rating
Please do not post tabs as comments. Select "correction" instead!