Oops, an error
Loading. Please wait.

Far From Here Bass Tab

620 views 6 this week
1 commentread comment
1 2 3 4 5
please rate
add to favorites
launch autoscroll
font size
0
reset
guitar tuner
Autoscroll
slow
fast
+/-
esc
set tempo
stop
Help us to improve Ultimate-Guitar.com Take our survey!
×
 - its not exactly the same..but it works :D
Tabbed By: haylery
Tuning: Standard (GDAE)

Intro (0:05)
G|-------------------------------------------------------------------------|
D|-------------------------------------------------------------------------|
A|-------------------------------------------------------------------------|
E|-000000004444555500000000444455550000000044445555------------------------|

1st verse (0:15)
G|----------------------------------------------------------------|
D|----------------------------------------------------------------|
A|44444444444444444444444444444444--------------------------------|
E|--------------------------------00000000000000000000000000000000|

G|---------------------------------------------------------------------------|
D|---------------------------------------------------------------------------|
A|44444444444444444444444444444444---------------------------------70--------|
E|--------------------------------00000000000000000000000000000000-----------|

G|-------------------------------------------------------------------|
D|-------------------------------------------------------------------|
A|-70-7000--70-70000-------------------------------------------------|
E|0--------0---------000000000000000---------------------------------|

Chorus (0:51)
G|-------------------------------------------------------------------|
D|-------------------------------------------------------------------|
A|44444444400000000-----------------4444444400000000-----------------|
E|-----------------0000000000000000-----------------00000000000000004|

G|--------------------------------------------------|
D|--------------------------------------------------|
A|44444443/7777777722222222222222220000000000000000-|
E|--------------------------------------------------|

2nd verse (1:12)
G|----------------------------------------------------------------|
D|----------------------------------------------------------------|
A|44444444444444444444444444444444--------------------------------|
E|--------------------------------00000000000000000000000000000000|

G|---------------------------------------------------------------------------|
D|---------------------------------------------------------------------------|
A|44444444444444444444444444444444---------------------------------70-7000---|
E|--------------------------------00000000000000000000000000000000-----------|

G|-------------------------------------------------------------------|
D|-------------------------------------------------------------------|
A|-70--700000000--70-7000--------------------------------------------|
E|0--------------0--------000000000000000----------------------------|

Chorus (1:47)
G|-------------------------------------------------------------------|
D|-------------------------------------------------------------------|
A|44444444400000000-----------------4444444400000000-----------------|
E|-----------------0000000000000000-----------------0000000000000000-|

G|--------------------------------------------------|
D|--------------------------------------------------|
A|44444443/7777777722222222222222220000000000000000-|
E|--------------------------------------------------|

Bridge (2:09)
G|----------------------------------------------------------------|
D|----------------------------------------------------------------|
A|4~-000-------4~-000-------4~-000---7---7-----7----7-----7-77777-|
E|-------0~-00--------0~-00-----------0-0-000-0-0-0--000-0-0------|


[play nothing for first part]
Chorus (2:45)
G|--------------------------------------------------|
D|--------------------------------------------------|
A|44444443/7777777722222222222222220000000000000000-|
E|--------------------------------------------------|

G|----------------------------------------------------------------------|
D|----------------------------------------------------------------------|
A|44444443/7777777722222222222222220000000000000000---------------------|
E|-------------------------------------------------------------------0~-|

| /  slide up
| ~  let ring
comments
We did not receive enough feedback on this tab! Please rate:
print report bad tab
1 2 3 4 5
1 comment total.
0 reply
thedeathbassist 31 wrote on September 5 2007, 08:06 pm

this sucks!!!

I want to post or [tab]
guest
You may want to rate the tab now too:
select rating
Please do not post tabs as comments. Select "correction" instead!