Oops, an error
Loading. Please wait.

Far From Here Tab

version 1
version 1

Whole song

1,952 views 1 this week
no commentswrite comment
1 2 3 4 5
accurate
x 4
add to favorites
launch autoscroll
font size
0
reset
how to read this tab
guitar tuner
Tab Pro tools
  • play this tab
  • loop segment
  • change instrument
  • show fretboard
  • metronome
×
Best way to learn
"Far From Here"
Autoscroll
slow
fast
+/-
esc
set tempo
stop
Contributor
Difficulty
Tuning
novice
D# G# C# F# A# D#
eb--------------------------------------------------------------------------|
Bb--------------------------------------------------------------------------|
Gb-----------------------------------------------------------4-4-4----------|
Db-----------------------------------------------------------4-4-4----------|
Ab---4-6---4-6---4-6---4-6---4-6-----4-6---4-6---4-6---4-6---4-4-4----------|
Eb-0-----0-----0-----0-----0-----0-------0-----0-----0----------------------|

eb----------------------------------------|-0-------0-------0------0--------|
Bb----------------------------------------|-5-------0-------5------0--------|
Gb--------------------4-------------------|-6-------1-------6------1--------|
Db----------------------6----7-6----4-(x3)|-6-------2-------6------2--------|
Ab---4-6-------6-7------------------------|-4-------2-------4------2--------|
Eb-0-----0-2-0-----0-------0------0-------|---------0--------------0--------|


eb-----------------------------------|------------------------------------|
Bb-----------------------------------|------------------------------------|
Gb--------------------4--------------|------------------------------------|
Db----------------------6----7-6-----|-6------6----------6---6------------|
Ab---4-6-------6-7-------------------|---0------0-0----0---0----0-0---0---|
Eb-0-----0-2-0-----0-------0------0--|-----0/7-------7--------------7-----|

eb-----------------------------------|------------------------------------|
Bb-----------------------------------|------------------------------------|
Gb--------------------4--------------|------------------------------------|
Db----------------------6----7-6-----|-6--6--6-6--6---2---2-2-2222--------|
Ab---4-6-------6-7-------------------|-4--4--4-4--4---0---0-0-0000--------|
Eb-0-----0-2-0-----0-------0------0--|------------------------------------|

eb------------------------------------------------------------------------|
Bb------------------------------------------------------------------------|
Gb------------11-11-11-11---9--8-----6--6--6-6--6--2--2-2--2-2------------|
Db--2-2-2-2-/-9--9--9--9----7--6-----4--4--4-4--4--0--0-0--0-0--0---------|
Ab--0-0-0-0---------------------------------------------------------------|
Eb------------------------------------------------------------------------|

eb-----------------------------|-------------------------------------------|
Bb-----------------------------|-------------------------------------------|
Gb-11-11-11-11-11-11-11-11--9-8|-66666-6-4-/-9-9-9-9-9-9-9-9--4-x16--2-x16-|
Db-----------------------------|-44444-4-2-/-7-7-7-7-7-7-7-7--2------0-----|
Ab-9--9--9--9--9--9--9--9---7-6|-------------------------------------------|
Eb-0--0--0--0--0--0--0--0---0-0|-------------------------------------------|

eb--0---0--------------------------|--------------------------------------|
Bb--0---0---4----4----0-0-0---4---5|--------------------------------------|
Gb--6---1---4----4----8-9-11--4---4|------------------4-------------------|
Db--6---2---2----2------------2---2|--------------------6--7-6------------|
Ab--4---2--------------------------|--4-6-------6-7--------------4--------|
Eb------0--------------------------|-0----0-2-0-----0-----0----0----------|


eb--------------------------------|---------------------------------------|
Bb--------------------------------|---------------------------------------|
Gb--------------------------------|-----------------4---------------------|
Db--6----6---------6---6----------|-------------------6---7-6-------------|
Ab-----0---0-0---0---0---0-0---0--|-4-6-------6-7---------------4---------|
Eb-------------7-------------7----|0-----0-2-0-----0-----0-----0----------|

eb------------------------------------------------------------------------|
Bb------------------------------------------------------------------------|
Gb--------------------------------------------11-11-11-11---9--8----------|
Db-6--6--6-6--6--2--2-2--2-2-2-2----2-2-2-2-/-9--9--9--9----7--6----------|
Ab-4--4--4-4--4--0--0-0--0-0-0-0----0-0-0-0-------------------------------|
Eb------------------------------------------------------------------------|


eb------------------------------------------------------------------------|
Bb------------------------------------------------------------------------|
Gb-6--6--6-6--6--2--2-2--2-2-------11-11-11-11-11-11-11-11--9--8----------|
Db-4--4--4-4--4--0--0-0--0-0--0-----9--9--9--9--9--9--9--9--7--6----------|
Ab------------------------------------------------------------------------|
Eb------------------------------------------------------------------------|

eb---------------------------------------------|
Bb---------------------------------------------|
Gb-66666-6-4-/--9-9-9-9-9-9-9-9---4-x16--2-x16-|
Db-44444-4-2-/--7-7-7-7-7-7-7-7---2------0-----|
Ab---------------------------------------------|
Eb---------------------------------------------|

-break for vocals-

eb--------------------------------------------------------------------------|
Bb--------------------------------------------------------------------------|
Gb-8----------8-----------8----------8--------8----8------------------------|
Db--------------------------------------------------------------------------|
Ab-6----------6-----------6----------6--------6----6------------------------|
Eb----0--000----0--0-2-0-----0--000----0-0-2-----0----0-0-2-0---------------|

[softly]
eb---------------------------------------------------------------------------|
Bb---------------------------------------------------------------------------|
Gb----------------------------------------11-11-11-11--9--8------------------|
Db-6--6--6-6--6--2--2-2--2-2-2-2---2222-/-9--9--9--9---7--6------------------|
Ab-4--4--4-4--4--0--0-0--0-0-0-0---0000--------------------------------------|
Eb---------------------------------------------------------------------------|

[softly]
eb--------------------------------------------------------------------------|
Bb--------------------------------------------------------------------------|
Gb-------------------------------11-11-11-11-11-11-11-11---9--8-------------|
Db-6--6--6-6--6--2--2-2--2-2------------------------------------------------|
Ab-4--4--4-4--4--0--0-0--0-0-0----9--9--9--9--9--9--9--9---7--6-------------|
Eb--------------------------------0--0--0--0--0--0--0--0---0--0-------------|

eb--------------------------------------------------------------------------|
Bb--------------------------------------------------------------------------|
Gb--------------------------------------------------------------------------|
Db-66666-6-4-/-9-9-9-9-9-9-9-9---4-x16--2-x16---66666-6-4-/-9-9-9-9-9-9-9---|
Ab-44444-4-2-/-7-7-7-7-7-7-7-7---2------0-------44444-4-2-/-7-7-7-7-7-7-7---|
Eb--------------------------------------------------------------------------|

eb------------------------------------------------------------|----0--------|
Bb------------------------------------------------------------|----0--------|
Gb------------------------------------------------------------|----0--------|
Db--4-4-x-4-4-4-x-4-4-4-x-4-4-4-x-2-2-x-2-2-2-x-2-2-2-x-2-2-2-|-5--0--------|
Ab--2-2-x-2-2-2-x-2-2-2-x-2-2-2-x-0-0-x-0-0-0-x-0-0-0-x-0-0-0-|-3--2--------|
Eb------------------------------------------------------------|----0--------|


I'm pretty sure it's fairly accurate, but if there's something that doesn't sound right, 
you think should be changed,
email me.
comments
print report bad tab
I want to post or [tab]
guest
You may want to rate the tab now too:
select rating
Please do not post tabs as comments. Select "correction" instead!