Oops, an error
Loading. Please wait.

Good To You Tab

17,498 views 6 this week
3 commentsread comments
1 2 3 4 5
excellent!
x 5
add to favorites
launch autoscroll
font size
0
reset
how to read this tab
guitar tuner
Autoscroll
slow
fast
+/-
esc
set tempo
stop
Help us to improve Ultimate-Guitar.com Take our survey!
×
Author
Good To You - Marianas Trench

Tabbed by: Maegan Trottier
Email: maegan.trottier@live.com 

Tuning: standard 

Verse 1: 
    G              D                               Cadd9
e|--3--------------2--------------------------------3------------------------|
B|--3--------------3--------------------------------3------------------------|
G|-----------------2---------------------------------------------------------|
D|--------------------------------------------------2------------------------|
A|--2-----------------------------------------------3------------------------|
E|--3------------------------------------------------------------------------|
Everyone's around, no words are coming out, and I can't find my breath 

      Em7           D            Cadd9
e|------3-------------2------------3-----3---3-3---3-3---3-3---3-------------|
B|------3-------------3------------3-------3-----3-----3-----3---------------|
G|--------------------2------------------------------------------------------|
D|------2--------------------------2-----------------------------------------|
A|------2--------------------------3-----------------------------------------|
E|---------------------------------------------------------------------------|
can we just say the rest with no sound? 

    G                         D                      Cadd9 
e|--3-------------------------2------------------------3---------------------|
B|--3-------------------------3------------------------3---------------------|
G|----------------------------2----------------------------------------------|
D|-----------------------------------------------------2---------------------|
A|--2--------------------------------------------------3---------------------|
E|--3------------------------------------------------------------------------|
And I know this isn't enough, I still don't measure up. And I'm not prepared

       Em7            D              Cadd9
e|------3-------------2------------3--3--3--3--------------------------------|
B|------3-------------3------------3--3--3--3--------------------------------|
G|--------------------2------------------------------------------------------|
D|------2--------------------------2--2--2--3--------------------------------|
A|------2--------------------------3--3--3--3--------------------------------|
E|---------------------------------------------------------------------------|
sorry is never there when you need it. 


Chorus:
  Em7       Cadd9                      G                       D  
e|-3----------3------------------------3-----------------------3-------------|
B|-3----------3------------------------3-----------------------2-------------|
G|-------------------------------------------------------------3-------------|          x2
D|-2----------2--------------------------------------------------------------|
A|-2----------3------------------------2-------------------------------------|
E|-------------------------------------3-------------------------------------|
  And I do, want you to know I  hold  you up above      everyone. 
  And I do, want you to know I think, you'd be good to me, and I'd be 

              Em7       C          Em7         C
e|-------------3--------------------3----------------------------------------|
B|-------------3---------1----------3-----------1----------------------------|
G|---------------------------------------------------------------------------|
D|-------------2---------2----------2-----------2----------------------------|
A|-------------2---------3----------2-----------3----------------------------|
E|---------------------------------------------------------------------------|
  so good to you.                 I would. 


Verse 2:
    G                         D                           Cadd9 
e|--3-------------------------2-----------------------------3----------------|
B|--3-------------------------3-----------------------------3----------------|
G|----------------------------2----------------------------------------------|
D|----------------------------------------------------------2----------------|
A|--2-------------------------------------------------------3----------------|
E|--3------------------------------------------------------------------------|
  I thought I saw a sign, somewhere between the lines but maybe

       Em7            D              Cadd9
e|------3-------------2------------3--3--3--3--------------------------------|
B|------3-------------3------------3--3--3--3--------------------------------|
G|--------------------2------------------------------------------------------|
D|------2--------------------------2--2--2--3--------------------------------|
A|------2--------------------------3--3--3--3--------------------------------|
E|---------------------------------------------------------------------------|
 it's only me, maybe I only see what I want. 

    G                         D                               Cadd9  
e|--3-------------------------2---------------------------------3------------|
B|--3-------------------------3---------------------------------3------------|
G|----------------------------2----------------------------------------------|
D|--------------------------------------------------------------2------------|
A|--2-----------------------------------------------------------3------------|
E|--3------------------------------------------------------------------------|
  and I still have your letter, just got caught between someone I

       Em7            D                              Cadd9
e|------3-------------2---------------------------3--3--3--3-----------------|
B|------3-------------3---------------------------3--3--3--3-----------------|
G|--------------------2------------------------------------------------------|
D|------2-----------------------------------------2--2--2--3-----------------|
A|------2-----------------------------------------3--3--3--3-----------------|
E|---------------------------------------------------------------------------|
  just invented, who I really am and who I've become. 



Chorus:
  Em7       Cadd9                      G                       D 
e|-3----------3------------------------3-----------------------3-------------|
B|-3----------3------------------------3-----------------------2-------------|
G|-------------------------------------------------------------3-------------|      x2
D|-2----------2--------------------------------------------------------------|
A|-2----------3------------------------2-------------------------------------|
E|-------------------------------------3-------------------------------------|
  And I do, want you to know I  hold  you up above      everyone. 
  And I do, want you to know I think, you'd be good to me, and I'd be 

              Em7        C         Em7          C
e|-------------3--------------------3----------------------------------------|
B|-------------3---------1----------3-----------1----------------------------|
G|---------------------------------------------------------------------------|
D|-------------2---------2----------2-----------2----------------------------|
A|-------------2---------3----------2-----------3----------------------------|
E|---------------------------------------------------------------------------|
  so good to you.                 I would. 



Bridge: 
  Em7         Cadd9          G              D
e|-3-----------3-------------3--------------2--------------------------------|
B|-3-----------3-------------3--------------3--------------------------------|
G|------------------------------------------2--------------------------------|        x2
D|-2-----------2-------------------------------------------------------------|
A|-2-----------3-------------2-----------------------------------------------|
E|---------------------------3-----------------------------------------------|
  Whoa-oh-ohh, whoa-oh-ohh, whoa-oh-oh-ohh-ohhh-ohh-ohh  [x2]

  Em7    C     Em7     C
e|-3------------3------------------------------------------------------------|
B|-3-----1------3------1-----------------------------------------------------|
G|---------------------------------------------------------------------------|
D|-2-----2------2------2-----------------------------------------------------|
A|-2-----3------2------3-----------------------------------------------------|
E|---------------------------------------------------------------------------|


Chorus:
  Em7       Cadd9                      G                       D 
e|-3----------3------------------------3-----------------------3-------------|
B|-3----------3------------------------3-----------------------2-------------|
G|-------------------------------------------------------------3-------------|      x2
D|-2----------2--------------------------------------------------------------|
A|-2----------3------------------------2-------------------------------------|
E|-------------------------------------3-------------------------------------|
  And I do, want you to know I  hold  you up above      everyone. 
  And I do, want you to know I think, you'd be good to me, and I'd be 
              Em7 
e|-------------3-------------------------------------------------------------|
B|-------------3-------------------------------------------------------------|
G|---------------------------------------------------------------------------|
D|-------------2-------------------------------------------------------------|
A|-------------2-------------------------------------------------------------|
E|---------------------------------------------------------------------------|
  so good to you.   
              
Ending:
   G                 Cadd9               Em7                  D 
e|-3-------------------3------------------3-------------------2-----------------------|
B|-3-------------------3------------------3-------------------3-----------------------|
G|------------------------------------------------------------2-----------------------|
D|---------------------2------------------2-------------------------------------------|
A|-2-------------------3------------------2-------------------------------------------|
E|-3----------------------------------------------------------------------------------|
  I'd be good to you, I'd be good to you, I'd be good to you, I'd be so good to you

  Em7                Cadd9                G                   D                    Em7       
e|-3-------------------3------------------3-------------------2---------------------3--|
B|-3-------------------3------------------3-------------------3---------------------3--|
G|------------------------------------------------------------2------------------------|
D|-2-------------------2------------------------------------------------------------2--|
A|-2-------------------3------------------2-----------------------------------------2--|
E|-3--------------------------------------3--------------------------------------------|
  I'd be good to you, I'd be good to you, I'd be good to you, I'd be so good to you


************************************

| /   slide up
| \   slide down
| h   hammer-on
| p   pull-off
| ~   vibrato
| +   harmonic
| x   Mute note
| b   Bend
| pb  Pre-bend
| br  Bend release
| pbr Pre-bend release
| brb Bend release bend

************************************
Suggest correction
What's this?
You can suggest a correction to this tab. Community and Mods will review your correction and vote to approve or reject it.
comments
print report bad tab
3 comments total.
-1 reply
Anacckandah 127 wrote on February 15 2011, 12:00 am

there are easier ways to play these chords!

0 reply
JordanLane 19 wrote on September 14 2013, 01:11 pm

sounds pretty spot on? also how are these not easy?

0 reply
CanadianMusic 13 wrote on January 10 2014, 07:03 pm

these are amazing! i wish all tabs were like this, it makes learning a song, as a beginner with no teacher, so much easier!

guest
You may want to rate the tab now too:
select rating
Please do not post tabs as comments. Select "correction" instead!