Oops, an error
Loading. Please wait.

Havent Had Enough Tab

version 1
version 1

Whole song

Interactive

5,396 views 1 this week
2 commentsread comments
1 2 3 4 5
excellent!
x 3
add to favorites
launch autoscroll
font size
0
reset
how to read this tab
guitar tuner
Autoscroll
slow
fast
+/-
esc
set tempo
stop
Help us to improve Ultimate-Guitar.com Take our survey!
×
Author
Difficulty
novice
Song: Haven't Had Enough
Band: Marianas Trench
Tuning: Standard
Reference: http://www.youtube.com/watch?v=L1fjPRkon34 
Tabber: Devan Del Medico

Legend:
V = downstroke
^ = upstroke
PM = palm-muted
x = closed (muted)
/ = slide up

Verse
  1 & 2 & 3 & 4 &   1 & 2 & 3 & 4 &  
|-0---0-0--0------|-------x-x---x---|
|-3---3-3--3------|-------x-x---x---|
|-2---2-0--0------|-------6-x---x---|
|-0---0-0--0------|-------7-9---9---|
|-0---0-2--2------|-------7-9---9---|
|-2---2-3--3------|-------5-7---7---|
  V   V ^  ^              ^ V   V     

Pre-Chorus
   1 & 2 & 3 & 4 &   1 & 2 & 3 & 4 &   1 & 2 & 3 & 4 &   1 & 2 & 3 & 4 &
 |-x-x-x-x-x-x-x-x-|-0-0-0-0-0-0-0-0-|-0-0-0-0-0-0-0-0-|-x-x-x-x-x-x-x-x-|
 |-x-x-x-x-x-x-x-x-|-3-3-3-3-3-3-3-3-|-3-3-3-3-3-3-3-3-|-x-x-x-x-x-x-x-x-|
 |-x-x-x-x-x-x-x-x-|-0-0-0-0-0-0-0-0-|-2-2-2-2-2-2-2-2-|-6-6-6-6-6-6-6-6-|
 |-9-9-9-9-9-9-9-9-|-0-0-0-0-0-0-0-0-|-0-0-0-0-0-0-0-0-|-7-7-7-7-7-7-7-7-|
 |-9-9-9-9-9-9-9-9-|-2-2-2-2-2-2-2-2-|-0-0-0-0-0-0-0-0-|-7-7-7-7-7-7-7-7-|
 |-7-7-7-7-7-7-7-7-|-3-3-3-3-3-3-3-3-|-2-2-2-2-2-2-2-2-|-5-5-5-5-5-5-5-5-|
PM V V V V V V V V   V V V V V V V V   V V V V V V V V   V V V V V V V V

   1 & 2 & 3 & 4 &   1 & 2 & 3 & 4 &   1 & 2 & 3 & 4 &   1 & 2 & 3 & 4 &
 |-x---x---x---x---|-0---0---0---0---|-0---0---0---0---|-x-x-x-x-x-------|
 |-x---x---x---x---|-3---3---3---3---|-3---3---3---3---|-x-x-x-x-x-------|
 |-x---x---x---x---|-0---0---0---0---|-2---2---2---2---|-6-6-6-6-6-------|
 |-9---9---9---9---|-0---0---0---0---|-0---0---0---0---|-7-7-7-7-7-------|
 |-9---9---9---9---|-2---2---2---2---|-0---0---0---0---|-7-7-7-7-7-------|
 |-7---7---7---7---|-3---3---3---3---|-2---2---2---2---|-5-5-5-5-5-------|
PM V   V   V   V     V   V   V   V     V   V   V   V     V V V V V

Chorus
  1 & 2 & 3 & 4 &   1 & 2 & 3 & 4 &  
|-0---0-0--0------|-------x-x---x---|
|-3---3-3--3------|-------x-x---x---|
|-2---2-0--0------|-------6-x---x---|
|-0---0-0--0------|-------7-9---9---|
|-0---0-2--2------|-------7-9---9---|
|-2---2-3--3------|-------5-7---7---|
  V   V ^  ^              ^ V   V     
 
Bridge
  1 & 2 & 3 & 4 &   1 & 2 & 3 & 4 &   1 & 2 & 3 & 4 &   1 & 2 & 3 & 4 &
|-x-x-------------|-x-x-----0-0-----|-0-0-------------|-0-0-----x-x-----|
|-x-x-------------|-x-x-----3-3-----|-3-3-------------|-3-3-----x-x-----|
|-6-6-------------|-x-x-----2-0-----|-0-0-------------|-0-0-----x-x-----|
|-7-7-------------|-9-9-----0-0-----|-0-0-------------|-0-0-----9-9-----|
|-7-7-------------|-9-9-----0-2-----|-2-2-------------|-2-2-----9-9-----|
|-5-5-------------|-7-7-----2-3-----|-3-3-------------|-3-3-----7-7-----|
  V V               V V     V V       V V               V V     V V

  1 & 2 & 3 & 4 &   1 & 2 & 3 & 4 &   1 & 2 & 3 & 4 &   1 & 2 & 3 & 4 &
|-x-x-------------|-x-x-----0-0-----|-0-0-----0-0---0-|-0-x-x-x-x-x-----|
|-x-x-------------|-x-x-----3-3-----|-3-3-----3-3---3-|-3-x-x-x-x-x-----|
|-6-6-------------|-x-x-----2-0-----|-0-0-----0-0---0-|-0-1111111111----|
|-7-7-------------|-9-9-----0-0-----|-0-0-----0-0---0-|-0-1212121212----|
|-7-7-------------|-9-9-----0-2-----|-2-2-----2-2---2-|-2-1212121212----|
|-5-5-------------|-7-7-----2-3-----|-3-3-----3-3---3-|-3-1010101010----|
  V V               V V     V V       V V     V V   ^   V V V V V V 

  1 & 2 & 3 & 4 &   1 & 2 & 3 & 4 &   1 & 2 & 3 & 4 &   1 & 2 & 3 & 4 &
|-------------3---|-----3-------3---|-------------3---|-----3-------3---|
|-------------3---|-----3-------3---|-------------3---|-----3-------3---|
|-----2-----0-----|-----0-------0---|-----2-----0-----|-----0-------0---|
|---0-----0-------|---0-------0-----|---0-----0-------|---0-------0-----|
|-----------------|-----------------|-----------------|-----------------|
|-2----/3---------|-3-------3-------|-2----/3---------|-3-------3-------|

Order:
-       Verse
-       Pre-Chorus
-       Chorus
-       Verse
-       Bridge
-       Chorus
-       Verse
Suggest correction
Give kudos to tab author, rate the tab!
1 2 3 4 5
comments
print report bad tab
2 comments total.
0 reply
DevanD 212 wrote on August 5 2012, 09:40 am

Minor mistake:
Bridge


|-x-x-------------|-x-x-----0-0-----|-0-0-------------|-0-0-----x-x-----|
|-x-x-------------|-x-x-----3-3-----|-3-3-------------|-3-3-----x-x-----|
|-6-6-------------|-x-x-----2-0-----|-0-0-------------|-0-0-----x-x-----|
|-7-7-------------|-9-9-----0-0-----|-0-0-------------|-0-0-----9-9-----|
|-7-7-------------|-9-9-----0-2-----|-2-2-------------|-2-2-----9-9-----|
|-5-5-------------|-7-7-----2-3-----|-3-3-------------|-3-3-----7-7-----|

0 reply
DevanD 212 wrote on August 5 2012, 09:41 am

Correction:

Bridge
1 & 2 & 3 & 4 & 1 & 2 & 3 & 4 & 1 & 2 & 3 & 4 & 1 & 2 & 3 & 4 &
|-x-x-------------|-x-x-----0-0*----|-0-0-------------|-0-0-----x-x-----|
|-x-x-------------|-x-x-----3-3*----|-3-3-------------|-3-3-----x-x-----|
|-6-6-------------|-x-x-----2-2*----|-0-0-------------|-0-0-----x-x-----|
|-7-7-------------|-9-9-----0-0*----|-0-0-------------|-0-0-----9-9-----|
|-7-7-------------|-9-9-----0-0*----|-2-2-------------|-2-2-----9-9-----|
|-5-5-------------|-7-7-----2-2*----|-3-3-------------|-3-3-----7-7-----|
V V V V V V V V V V V V

guest
You may want to rate the tab now too:
select rating
Wanna post a correction for this tab? Suggest correction