Oops, an error
Loading. Please wait.

Masterpiece Theatre Part 1 Tab

3,797 views 6 this week
no commentswrite comment
1 2 3 4 5
accurate
x 3
add to favorites
launch autoscroll
font size
0
reset
how to read this tab
guitar tuner
Tab Pro tools
  • play this tab
  • loop segment
  • change instrument
  • show fretboard
  • metronome
×
Best way to learn
"Masterpiece Theatre Part 1"
Autoscroll
slow
fast
+/-
esc
set tempo
stop
Contributor
-------------------------------------------------------------------------------
                             MASTERPIECE THEATRE I - Marianas Trench
-------------------------------------------------------------------------------
Tabbed by: HOLDINtheACES
Email: kelley.jeffreys@gmail.com

Tuning: Standard


Verse
e|-------2-------------2-------------2-------------2-----| x2
B|---0-----0---0---0-----0---0---0-----0---0---0-----0---|
G|-4---4-----4---3---3-----3---4---4-----4---3---3-----3-|
D|-------------------------------------------------------|
A|-------------------------------------------------------|
E|-------------------------------------------------------|

e|-------2-------------2-------------2-------------2----------2-------------2-------| x2
B|---0-----0---0---0-----0---0---0-----0---0---0-----0----0-----0---0---0-----0---0-|
G|-4---4-----4---3---3-----3---1---1-----1------------------------------------------|
D|-------------------------------------------4---4------2---2-----2---4---4-----4---|
A|----------------------------------------------------------------------------------|
E|----------------------------------------------------------------------------------|


Prechorus
e|-----2-----------2-----------2-----------2-------|
B|---0---0---0---0---0---0---0---0---0---0---0---0-|
G|-1-------1---1-------1---------------------------|
D|-------------------------4-------4---4-------4---|
A|-------------------------------------------------|
E|-------------------------------------------------|

e|-----2-----------2-----------2--------2-|
B|---0---0---0---0---0---0---0---0---0--0-|
G|--------------------------------------3-|
D|-1-------1---1-------1------------------|
A|-------------------------4-------4------|
E|----------------------------------------|


Chorus
e|-------------------------------------------------------------------------| x2
B|-------------------------------------------------------------------------|
G|-4(x16)--3(x16)----------------------------------------------------------|
D|-4-------4-------2(x4)--x(x4)--4(x4)--x(x4)--2(x4)--x(x4)--4(x4)--x(x8)--|
A|-2-------1-------2------x------4------x------2------x------4------x------|
E|-----------------0------x------2------x------0------x------2------x------|


Bridge
e|-----------------| x4
B|-----------------|
G|-4--4--4--44-4---|
D|-4--4--4--44-4-2-|    
A|-2--2--2--22-2-2-|
E|---------------0-|

e|---------------|
B|---------------|
G|--------4(x28)-| 
D|--------4------| 
A|-2(x60)-2------| 
E|---------------| 
  . . . . 

e|---------------------------| x3
B|---------------------------|
G|---------------------------|
D|---------------------------|
A|---------------------------|
E|-4(x6)-6(x6)-7(x6)-11(x6)--|

e|---------------------------|
B|---------------------------|
G|---------------------------|
D|---------------------------|
A|---------------------------|
E|-7(x6)-9(x6)-11(x6)-12(x6)-|


Outro 
e|----------------------|
B|----------------------|
G|----------------------|
D|----------------------|
A|----------------------|
E|-7----6----0----2--0--|
repeat the last 2 notes until the end of the song


ORDER:
Verse
Prechorus
Chorus
Verse
Prechorus
Chorus
Bridge
Outro


************************************

| /   slide up
| \   slide down
| h   hammer-on
| p   pull-off
| ~   vibrato
| +   harmonic
| x   Mute note
| .   Palm Mute
| b   Bend
| pb  Pre-bend
| br  Bend release
| pbr Pre-bend release
| brb Bend release bend

************************************
comments
We did not receive enough feedback on this tab! Please rate:
print report bad tab
1 2 3 4 5
I want to post or [tab]
guest
You may want to rate the tab now too:
select rating
Please do not post tabs as comments. Select "correction" instead!