Oops, an error
Loading. Please wait.

Perfect Tab

7,199 views 1 this week
4 commentsread comments
1 2 3 4 5
please rate
add to favorites
launch autoscroll
font size
0
reset
how to read this tab
guitar tuner
Autoscroll
slow
fast
+/-
esc
set tempo
stop
Help us to improve Ultimate-Guitar.com Take our survey!
×
Author
#----------------------------------PLEASE NOTE---------------------------------#
#This file is the author's own work and represents their interpretation of the #
#song. You may only use this file for private study, scholarship, or research. #
#------------------------------------------------------------------------------#



----------------------------------------------------------------------------
            Perfect by Marianas Trench . . . tabbed by Bob M.
----------------------------------------------------------------------------


Tabbed by ear. Open to suggestions and please rate!!!

Tuning: Guitar 1 - EADGBE
        Guitar 2 - EADGBE 


   Intro - 00:05

   Guitar 1: 
E|--------------------------------------|
B|--12----8--7---8--5---8--7---8--------|
G|--12----7--7---7--5---7--7---7--------|
D|--12----9--7---9--5---9--7---9--------|
A|--10----7--5---7--3---7--5---7--------|
E|--------------------------------------|
 | Guitar 2:                            |
E|---7----------------------------------|
B|---8----8--7---8--5---8--7---8--------|
G|---7----7--x---7--x---7--x---7--------|
D|---9----9--7---9--5---9--7---9--------|
A|--------7--5---7--3---7--5---7--------|
E|--------------------------------------|


  Guitar 1: 
E|--------------------------------------|
B|--12----8--7---8--5---8--7---8--------|
G|--12----7--7---7--5---7--7---7--------|
D|--12----9--7---9--5---9--7---9--------|
A|--10----7--5---7--3---7--5---7--------|
E|--------------------------------------|
 |Guitar 2:                             |
E|---7----------------------------------|
B|---8----8--7---8--5---8--7---8--------|
G|---7----7--x---7--x---7--x---7--------|
D|---9----9--7---9--5---9--7---9--------|
A|--------7--5---7--3---7--5---7--------|
E|--------------------------------------|



  "I just wish you. . ." 00:23
  
   Guitar 1:
E|------------------7-7-x-----------------7-7-x----------------7-7-x-----------------7-7--||
B|--12-12--x-x-x-x--8-8-x---7-7--x-x-x-x--8-8-x--5-5--x-x-x-x--8-8-x--7-7---x-x-x-x--8-8--||
G|--12-12--x-x-x-x--7-7-x---7-7--x-x-x-x--7-7-x--5-5--x-x-x-x--7-7-x--7-7---x-x-x-x--7-7--||
D|--12-12--x-x-x-x--9-9-x---7-7--x-x-x-x--9-9-x--5-5--x-x-x-x--9-9-x--7-7---x-x-x-x--9-9--||
A|--10-10--x-x-x-x--7-7-x---5-5--x-x-x-x--7-7-x--3-3--x-x-x-x--7-7-x--5-5---x-x-x-x--7-7--||
E|----------------------------------------------------------------------------------------||


   Guitar 1:
E|---------7-7-7-7-x--------7-7-7-7-x-------7-7-7-7-x------------|
B|--12-12--8-8-8-8-x---7-7--8-8-8-8-x--5-5--8-8-8-8-x--7-7-7-7---|
G|--12-12--7-7-7-7-x---7-7--7-7-7-7-x--5-5--7-7-7-7-x--7-7-7-7---|
D|--12-12--9-9-9-9-x---7-7--9-9-9-9-x--5-5--9-9-9-9-x--7-7-7-7---|
A|--10-10--7-7-7-7-x---5-5--7-7-7-7-x--3-3--7-7-7-7-x--5-5-5-5---|
E|---------------------------------------------------------------|
 | Guitar 2:
E|---------7-7-7-7-x--------7-7-7-7-x-------7-7-7-7-x------------|
B|--12-12--8-8-8-8-x---7-7--8-8-8-8-x--5-5--8-8-8-8-x--7-7-7-7---|
G|---x--x--7-7-7-7-x---x-x--7-7-7-7-x--x-x--7-7-7-7-x--x-x-x-x---|
D|--12-12--9-9-9-9-x---7-7--9-9-9-9-x--5-5--9-9-9-9-x--7-7-7-7---|
A|--10-10--7-7-7-7-x---5-5--7-7-7-7-x--3-3--7-7-7-7-x--5-5-5-5---|
E|---------------------------------------------------------------|



   Chorus - "What you want..." 00:41
   
   Guitar 1:
E|---------------------------------------------------|
B|---12--12-12-12-12-12-12-12---7--7-7-7-7-7-7-7-7---|
G|---12--12-12-12-12-12-12-12---7--7-7-7-7-7-7-7-7---|
D|---12--12-12-12-12-12-12-12---7--7-7-7-7-7-7-7-7---|
A|---10--10-10-10-10-10-10-10---5--5-5-5-5-5-5-5-5---|
E|---------------------------------------------------|

  
E|---------------------------------------------------|
B|---5--5-5-5-5-5-5-5---7--7-7-7-7-7-7-7-------------|
G|---5--5-5-5-5-5-5-5---7--7-7-7-7-7-7-7-------------|
D|---5--5-5-5-5-5-5-5---7--7-7-7-7-7-7-7-------------|
A|---3--3-3-3-3-3-3-3---5--5-5-5-5-5-5-5-------------|
E|---------------------------------------------------|


E|---------------------------------------------------|
B|---12--12-12-12-12-12-12-12---7--7-7-7-7-7-7-7-7---|
G|---12--12-12-12-12-12-12-12---7--7-7-7-7-7-7-7-7---|
D|---12--12-12-12-12-12-12-12---7--7-7-7-7-7-7-7-7---|
A|---10--10-10-10-10-10-10-10---5--5-5-5-5-5-5-5-5---|
E|---------------------------------------------------|


E|---------------------------------------------------|
B|---5--5-5-5-5-5-5-5---7--7-7-7-7-7-7-7-------------|
G|---5--5-5-5-5-5-5-5---7--7-7-7-7-7-7-7-------------|
D|---5--5-5-5-5-5-5-5---7--7-7-7-7-7-7-7-------------|
A|---3--3-3-3-3-3-3-3---5--5-5-5-5-5-5-5-------------|
E|---------------------------------------------------|


   Verse 2 - "Coming down, coming around..." 00:59

   Guitar 1:
E|------------------7-7-x-----------------7-7-x----------------7-7-x-----------------7-7--||
B|--12-12--x-x-x-x--8-8-x---7-7--x-x-x-x--8-8-x--5-5--x-x-x-x--8-8-x--7-7---x-x-x-x--8-8--||
G|--12-12--x-x-x-x--7-7-x---7-7--x-x-x-x--7-7-x--5-5--x-x-x-x--7-7-x--7-7---x-x-x-x--7-7--||
D|--12-12--x-x-x-x--9-9-x---7-7--x-x-x-x--9-9-x--5-5--x-x-x-x--9-9-x--7-7---x-x-x-x--9-9--||
A|--10-10--x-x-x-x--7-7-x---5-5--x-x-x-x--7-7-x--3-3--x-x-x-x--7-7-x--5-5---x-x-x-x--7-7--||
E|----------------------------------------------------------------------------------------||


   Guitar 1:
E|---------7-7-7-7-x--------7-7-7-7-x-------7-7-7-7-x--------------------|
B|--12-12--8-8-8-8-x---7-7--8-8-8-8-x--5-5--8-8-8-8-x--7-7-7-7-7-7-7-7---|
G|--12-12--7-7-7-7-x---7-7--7-7-7-7-x--5-5--7-7-7-7-x--7-7-7-7-7-7-7-7---|
D|--12-12--9-9-9-9-x---7-7--9-9-9-9-x--5-5--9-9-9-9-x--7-7-7-7-7-7-7-7---|
A|--10-10--7-7-7-7-x---5-5--7-7-7-7-x--3-3--7-7-7-7-x--5-5-5-5-5-5-5-5---|
E|-----------------------------------------------------------------------|
 | Guitar 2:                                                             |
E|---------7-7-7-7-x--------7-7-7-7-x-------7-7-7-7-x--------------------|
B|--12-12--8-8-8-8-x---7-7--8-8-8-8-x--5-5--8-8-8-8-x--7-7-7-7-7-7-7-7---|
G|---x--x--7-7-7-7-x---x-x--7-7-7-7-x--x-x--7-7-7-7-x--x-x-x-x-x-x-x-x---|
D|--12-12--9-9-9-9-x---7-7--9-9-9-9-x--5-5--9-9-9-9-x--7-7-7-7-7-7-7-7---|
A|--10-10--7-7-7-7-x---5-5--7-7-7-7-x--3-3--7-7-7-7-x--5-5-5-5-5-5-5-5---|
E|-----------------------------------------------------------------------|


   Chorus "What you want, what you need..." 01:27
   
   Guitar 1:
E|---------------------------------------------------|
B|---12--12-12-12-12-12-12-12---7--7-7-7-7-7-7-7-7---|
G|---12--12-12-12-12-12-12-12---7--7-7-7-7-7-7-7-7---|
D|---12--12-12-12-12-12-12-12---7--7-7-7-7-7-7-7-7---|
A|---10--10-10-10-10-10-10-10---5--5-5-5-5-5-5-5-5---|
E|---------------------------------------------------|


E|---------------------------------------------------|
B|---5--5-5-5-5-5-5-5---7--7-7-7-7-7-7-7-------------|
G|---5--5-5-5-5-5-5-5---7--7-7-7-7-7-7-7-------------|
D|---5--5-5-5-5-5-5-5---7--7-7-7-7-7-7-7-------------|
A|---3--3-3-3-3-3-3-3---5--5-5-5-5-5-5-5-------------|
E|---------------------------------------------------|


E|---------------------------------------------------|
B|---12--12-12-12-12-12-12-12---7--7-7-7-7-7-7-7-7---|
G|---12--12-12-12-12-12-12-12---7--7-7-7-7-7-7-7-7---|
D|---12--12-12-12-12-12-12-12---7--7-7-7-7-7-7-7-7---|
A|---10--10-10-10-10-10-10-10---5--5-5-5-5-5-5-5-5---|
E|---------------------------------------------------|


E|---------------------------------------------------|
B|---5--5-5-5-5-5-5-5---7--7-7-7-7-7-7-7-------------|
G|---5--5-5-5-5-5-5-5---7--7-7-7-7-7-7-7-------------|
D|---5--5-5-5-5-5-5-5---7--7-7-7-7-7-7-7-------------|
A|---3--3-3-3-3-3-3-3---5--5-5-5-5-5-5-5-------------|
E|---------------------------------------------------|


   01:45
   
   Guitar 1:
E|----------------------------------------------------|
B|---12--12-12-12-12-12-12-12---7--7-7-7-7-7-7-7-7----|
G|---12--12-12-12-12-12-12-12---7--7-7-7-7-7-7-7-7----|
D|---12--12-12-12-12-12-12-12---7--7-7-7-7-7-7-7-7----|
A|---10--10-10-10-10-10-10-10---5--5-5-5-5-5-5-5-5----|
E|----------------------------------------------------|
 | Guitar 2:                                          |
E|---10--------10------10-------10-----10-----10------|
B|----------------------------------------------------|
G|---------12------12------12-------11-----11----11---|
D|----------------------------------------------------|
A|----------------------------------------------------|
E|----------------------------------------------------|

   Guitar 1:
E|----------------------------------------------------|
B|---5--5-5-5-5-5-5-5---7--7-7-7-7-7-7-7--------------|
G|---5--5-5-5-5-5-5-5---7--7-7-7-7-7-7-7--------------|
D|---5--5-5-5-5-5-5-5---7--7-7-7-7-7-7-7--------------|
A|---3--3-3-3-3-3-3-3---5--5-5-5-5-5-5-5--------------|
E|----------------------------------------------------|
 | Guitar 2:                                          |
E|---10--------10------10-------10-----10-----10------|
B|----------------------------------------------------|
G|---------12------12------12-------11-----11----11---|
D|----------------------------------------------------|
A|----------------------------------------------------|
E|----------------------------------------------------|

   Guitar 1:
E|----------------------------------------------------|
B|---12--12-12-12-12-12-12-12---7--7-7-7-7-7-7-7-7----|
G|---12--12-12-12-12-12-12-12---7--7-7-7-7-7-7-7-7----|
D|---12--12-12-12-12-12-12-12---7--7-7-7-7-7-7-7-7----|
A|---10--10-10-10-10-10-10-10---5--5-5-5-5-5-5-5-5----|
E|----------------------------------------------------|
 | Guitar 2:                                          |
E|---10--------10------10-------10-----10-----10------|
B|----------------------------------------------------|
G|---------12------12------12-------11-----11----11---|
D|----------------------------------------------------|
A|----------------------------------------------------|
E|----------------------------------------------------|

   Guitar 1:
E|----------------------------------------------------|
B|---5--5-5-5-5-5-5-5---7--7-7-7-7-7-7-7--------------|
G|---5--5-5-5-5-5-5-5---7--7-7-7-7-7-7-7--------------|
D|---5--5-5-5-5-5-5-5---7--7-7-7-7-7-7-7--------------|
A|---3--3-3-3-3-3-3-3---5--5-5-5-5-5-5-5--------------|
E|----------------------------------------------------|
 | Guitar 2:                                          |               
E|---10--------10------10-------10-----10-----10------|
B|----------------------------------------------------|
G|---------12------12------12-------11-----11----11---|
D|----------------------------------------------------|
A|----------------------------------------------------|
E|----------------------------------------------------|

   Guitar 1: 
E|---------------------------------|
B|---7-7-7-7-7-7-7-7-/-------------|
G|---7-7-7-7-7-7-7-7-/-------------|
D|---7-7-7-7-7-7-7-7-/-------------|
A|---5-5-5-5-5-5-5-5-/-------------|
E|---------------------------------|
 | Guitar 2:                       |               
E|--10-10-10-10-10-10-10-10--------|
B|---------------------------------|
G|--12-12-12-12-12-12-12-12--------|
D|---------------------------------|
A|---------------------------------|
E|---------------------------------|


   "I'll make this perfect again..." 2:07

   Guitar 1:
E|------------------7-7-x-----------------7-7-x----------------7-7-x-----------------7-7--||
B|--12-12--x-x-x-x--8-8-x---7-7--x-x-x-x--8-8-x--5-5--x-x-x-x--8-8-x--7-7---x-x-x-x--8-8--||
G|--12-12--x-x-x-x--7-7-x---7-7--x-x-x-x--7-7-x--5-5--x-x-x-x--7-7-x--7-7---x-x-x-x--7-7--||
D|--12-12--x-x-x-x--9-9-x---7-7--x-x-x-x--9-9-x--5-5--x-x-x-x--9-9-x--7-7---x-x-x-x--9-9--||
A|--10-10--x-x-x-x--7-7-x---5-5--x-x-x-x--7-7-x--3-3--x-x-x-x--7-7-x--5-5---x-x-x-x--7-7--||
E|----------------------------------------------------------------------------------------||

   Guitar 1:
E|---------------------------------------------------|
B|---12--12-12-12-12-12-12-12---7--7-7-7-7-7-7-7-7---|
G|---12--12-12-12-12-12-12-12---7--7-7-7-7-7-7-7-7---|
D|---12--12-12-12-12-12-12-12---7--7-7-7-7-7-7-7-7---|
A|---10--10-10-10-10-10-10-10---5--5-5-5-5-5-5-5-5---|
E|---------------------------------------------------|


E|---------------------------------------------------|
B|---5--5-5-5-5-5-5-5---7--7-7-7-7-7-7-7-------------|
G|---5--5-5-5-5-5-5-5---7--7-7-7-7-7-7-7-------------|
D|---5--5-5-5-5-5-5-5---7--7-7-7-7-7-7-7-------------|
A|---3--3-3-3-3-3-3-3---5--5-5-5-5-5-5-5-------------|
E|---------------------------------------------------|

   Guitar 1:
E|---------------------------------------------------|
B|---12--12-12-12-12-12-12-12---7--7-7-7-7-7-7-7-7---|
G|---12--12-12-12-12-12-12-12---7--7-7-7-7-7-7-7-7---|
D|---12--12-12-12-12-12-12-12---7--7-7-7-7-7-7-7-7---|
A|---10--10-10-10-10-10-10-10---5--5-5-5-5-5-5-5-5---|
E|---------------------------------------------------|
 | Guitar 2:                                         |
E|---------------------------------------------------|
B|------------------------------12-------------------|
G|----------12h14---14b(16)-----14b(16)----12/-------|
D|---12h14-------------------------------------------|
A|---------------------------------------------------|
E|---------------------------------------------------|

   Guitar 1:
E|---------------------------------------------------|
B|---5--5-5-5-5-5-5-5---7--7-7-7-7-7-7-7-------------|
G|---5--5-5-5-5-5-5-5---7--7-7-7-7-7-7-7-------------|
D|---5--5-5-5-5-5-5-5---7--7-7-7-7-7-7-7-------------|
A|---3--3-3-3-3-3-3-3---5--5-5-5-5-5-5-5-------------|
E|---------------------------------------------------|

   Guitar 1: 
E|---------------------------------------------------|
B|---12--12-12-12-12-12-12-12---7--7-7-7-7-7-7-7-7---|
G|---12--12-12-12-12-12-12-12---7--7-7-7-7-7-7-7-7---|
D|---12--12-12-12-12-12-12-12---7--7-7-7-7-7-7-7-7---|
A|---10--10-10-10-10-10-10-10---5--5-5-5-5-5-5-5-5---|
E|---------------------------------------------------|
 | Guitar 2:                                         |
E|---------------------------------------------------|
B|------------------------------12-------------------|
G|----------12h14---14b(16)-----14b(16)----12/-------|
D|---12h14-------------------------------------------|
A|---------------------------------------------------|
E|---------------------------------------------------|

  Guitar 1:
E|---------------------------------------------------|
B|---5--5-5-5-5-5-5-5---7--7-7-7-7-7-7-7-------------|
G|---5--5-5-5-5-5-5-5---7--7-7-7-7-7-7-7-------------|
D|---5--5-5-5-5-5-5-5---7--7-7-7-7-7-7-7-------------|
A|---3--3-3-3-3-3-3-3---5--5-5-5-5-5-5-5-------------|
E|---------------------------------------------------|

  Guitar 1:
E|----------------------------------|
B|---7-7-7-7-7-7-7-7-/--12----------|
G|---7-7-7-7-7-7-7-7-/--12----------|
D|---7-7-7-7-7-7-7-7-/--12----------|
A|---5-5-5-5-5-5-5-5-/--10----------|
E|----------------------------------|


e------------------------------------------------------------------------||
b------------------------------------------------------------------------||
g---------------------- Love always to Éadaoin x ------------------------||
D------------------------------------------------------------------------||
A------------------------------------------------------------------------||
É------------------------------------------------------------------------||


Tablature Notation:
|| . . . play bar twice 
x . . . muted note / strum muted string
/ . . . slide 
h . . . hammer on
14b(16) . . . bend note on 14th fret to the note on the 16th fret


My email is ultimate-guitartabber@hotmail.com if you have any questions or
comments but constructive criticism only please.

11.06.09

Suggest correction
Give kudos to tab author, rate the tab!
1 2 3 4 5
comments
print report bad tab
4 comments total. Showing first comments.
0 reply
Drazorback123 180 wrote on June 12 2009, 07:15 pm

Thanks man.

0 reply
Drazorback123 180 wrote on June 14 2009, 05:20 pm

Um in the last part...are you sure the second guitar plays that? Cuz either it's me or my speakers or something...I can't hear that part.

0 reply
senorbobby 433 wrote on June 14 2009, 07:18 pm

ye its a really quite part which was difficult to tab but I'm fairly sure that it's accurate

guest
You may want to rate the tab now too:
select rating
Please do not post tabs as comments. Select "correction" instead!