Oops, an error
Loading. Please wait.

Primetime Tab

2,480 views 3 this week
2 commentsread comments
1 2 3 4 5
excellent!
x 3
add to favorites
launch autoscroll
font size
0
reset
how to read this tab
guitar tuner
Tab Pro tools
  • play this tab
  • loop segment
  • change instrument
  • show fretboard
  • metronome
×
Best way to learn
"Primetime"
Autoscroll
slow
fast
+/-
esc
set tempo
stop
Contributor
Mariana's Trench - Primetime
10/21/06
Standard

Intro
Guitar One (w/ wah)
E|------------------------------------|-------|
B|--9b10b9----------------12-10--9-x--|-9b10--|
G|---------9------------9-------------|-------|
D|-----------11~---9h11---------------|-------|
A|--------------------------------x4--|-------|
E|------------------------------------|-------|

Guitar Two
E|--------------------------------------|---------|
B|--------------------------------------|---------|
G|-----------------------7---------4----|-2---/x--|
D|----no guitar..--4-----7-----4---4----|-2---/x--|
A|-----------------4-----5-----4---2----|-0---/x--|
E|-----------------2-----------2--------|---------|


Verse
Bass
G|-------------------------------------|
D|--------------------------------x2--|
A|-0>>--2h0-------5>>-------2>--------|
E|----------2>>---------2>-----(024)--|

Clean Guitar
E|--------0---0---0---------0-------0--|
B|------0----0---0-----0--0----0--0----|
G|---2---2--2---2-----2-2--2--2-2--2---|
D|--2-2----2---2-----4-------4---------|
A|-0-----------------------------------|
E|-------------------------------------|

E|--------0-------0--------0-----------|
B|---0--0----0--0-----0--0-----0--0-0--|
G|--2-2--2--2-2--2---2-2--2---2-2--2---|
D|-0-------0--------4--------4---------|
A|-------------------------------------|
E|-------------------------------------|


Chorus
Both Guitars
E|----------------------------------------|
B|----------------------------------------|
G|--7--------------------------4----7-----|
D|--7-----4----7--------2------4----7-----|
A|--5---2-4----7---4h7--2------2----5-----|
E|------0-2----5--------0-----------------|

E|-------------------|
B|-------------------|
G|-------------------|
D|--7-6--------------|
A|------0-7-5-0-4-0--|
E|-------------------|


Interlude, Verse (w/ clean guitar)
Guitar One
E|------------------------------------|-------|
B|--9b10b9----------------12-10--9-x--|-9b10--|
G|---------9------------9-------------|-------|
D|-----------11~---9h11---------------|-------|
A|--------------------------------x4--|-------|
E|------------------------------------|-------|

Guitar Two
E|-----------------------------|------------------------|
B|-----------------------------|------------------------|
G|--2-----------7---------4----|-2------------------4/6-|
D|--2-----4-----7-----4---4----|-2---fdbk, flanger--4/6-|
A|--0-----4-----5-----4---2----|-0------------------2/4-|
E|--------2-----------2--------|------------------------|


Chorus


Bridge
Bass
G|-----6------------------------------|
D|-7>>--76----------------------------|
A|----------9>>--/5>>--0-----2>-------|
E|----------------------2>------024---|

G|------------------------------------|
D|------------------------------------|
A|----------4---------5>>-------2>----|
E|-5>--05>---54-2>>---------2>--------|

Guitars fade into Chorus with B5.


Chorus


Outro
Guitar One
E|---------------------|
B|------------------x4-|
G|---------------------|
D|--7-6----------------|
A|------0-7-5-0-4-0----|
E|---------------------|

Guitar Two
E|---------------------|
B|------------------x4-|
G|---------------------|
D|-11-9----------------|
A|------0-11-9-0-7-0---|
E|---------------------|

Both Guitars
E|-------------|
B|-------------|
G|-------------|
D|-6----/x-----|
A|-6----/x-----|
E|-4----/x-----|
comments
We did not receive enough feedback on this tab! Please rate:
print report bad tab
1 2 3 4 5
2 comments total.
+1 reply
thedeathbassist wrote on September 5 2007, 08:10 pm

you do some pretty sick tabs!

0 reply
MaeganMayhem wrote on January 11 2009, 09:05 pm

i'm pretty sure in the intro, it's;
E|------------------------------------|-------|
B|--9b10b9----------------12-10*--9-x-|-9b10--| not "12-11"
G|---------9------------9-------------|-------|
D|-----------11~---9h11---------------|-------|
A|--------------------------------x4--|-------|
E|------------------------------------|-------|

I want to post or [tab]
guest
You may want to rate the tab now too:
select rating
Please do not post tabs as comments. Select "correction" instead!