Oops, an error
Loading. Please wait.

Say Anything Bass Tab

version 1
version 1

Whole song

Interactive

1,925 views 1 this week
5 commentsread comments
1 2 3 4 5
please rate
add to favorites
launch autoscroll
font size
0
reset
guitar tuner
Tab Pro tools
  • play this tab
  • loop segment
  • change instrument
  • show fretboard
  • metronome
×
Best way to learn
"Say Anything"
Autoscroll
slow
fast
+/-
esc
set tempo
stop
Contributor
-------------------------------------------------------------------------------
			  Say Anything - Marianas Trench
-------------------------------------------------------------------------------
Tabbed By: Valerie L.
e-mail: iloled@yahoo.com
Tuning: Drop D
Done by request

Intro
G|------------------------------------------------------------|
D|------------------------------------------------------------|
A|-------------------------------------------------------3----|
D|-11-1-11-1-11-1-88-8-88-8-88-8-66-6-66-6-66-6-11-1-11-----5-|

Verse
G|------------------------------------|
D|------------------------------------|
A|--------11-1-11--------------1-11---|
D|-33-11-----------33-3/66--11--------|

Pre-Chorus 
G|----------------------------------------------------------------------------------|
D|----------------------------------------------------------------------------------|
A|------------------33333333-111111111----------------------------11111-------------|
D|-3333333/66666666--------------------33333333/66666666-11111111-------6-6-6-6-6-6-|

Chorus
G|--------------------------------------------------------|
D|--------------------------------------------------------|
A|-------------111111-1/3---------------------------------|
D|-11-1-111111--------------66-6-6666666-333333-5h6-5h6p5-| x2

G|-----------------------------------|
D|-----------------------------------|
A|---------6-5-55555-6-33333333------|
D|-11111/5----------------------66---|

Verse x1
Pre-Chorus x1

Chorus
G|--------------------------------------------------------|
D|--------------------------------------------------------|
A|-------------111111-1/3---------------------------------|
D|-11-1-111111--------------66-6-6666666-333333-5h6-5h6p5-|

G|--------------------------------------------|
D|--------------------------------------------|
A|--------6-5-55555-3-------------------------|
D|-111111-------------66666666-3333-5h6-5h6p--|

G|-----------------------------------|
D|-----------------------------------|
A|---------6-5-55555-6-33333333------|
D|-11111/5----------------------66---|

Bridge:
G|----------------------------|
D|----------------------------|
A|---------------11-1-1-33----|
D|-66--6--11--1------------55-| x3

G|-------------------------|
D|-------------------------|
A|-------------------------|
D|-3333333/6666666---6-66--|

Chorus
G|-------------------------------------------------|
D|-------------------------------------------------|
A|-------------------------------------------------|
D|-11-1-11-1-11-1-88-8-88-8-88-8-66-6-66-6-66-6-33-|

G|----------------------------------------------------|
D|----------------------------------------------------|
A|-------------111111---------------------------------|
D|-11-1-111111----------66-6-6666666-333333-5h6-5h6p5-|

G|-------------------------------------------------|
D|-------------------------------------------3333--|
A|-------------6-5555555---------------------------|
D|-11-1-111111------------66-6-6666666-333333------|

Ending:
G|-----------------------------------| |------|
D|-----------------------------------| |------|
A|---------6-5-55555-6-33333333------| |------|
D|-11111/5----------------------66---| |-8-66-| x2
comments
We did not receive enough feedback on this tab! Please rate:
print report bad tab
1 2 3 4 5
5 comments total. Showing first comments.
0 reply
Midas_22 wrote on April 21 2007, 11:59 am

Dude, not bad but I was at their concert last night and im sure thats not how he played it

0 reply
iheart_a7x wrote on April 21 2007, 12:04 pm

oh well lol.

0 reply
WashBurn! wrote on June 3 2007, 02:26 pm

Thats true.. he only plays on the E string.

I want to post or [tab]
guest
You may want to rate the tab now too:
select rating
Please do not post tabs as comments. Select "correction" instead!