Oops, an error
Loading. Please wait.

Say Anything Tab

version 2
version 2

Whole song

Interactive

9,777 views 12 this week
4 commentsread comments
1 2 3 4 5
excellent!
x 6
add to favorites
launch autoscroll
font size
0
reset
how to read this tab
guitar tuner
Tab Pro tools
  • play this tab
  • loop segment
  • change instrument
  • show fretboard
  • metronome
Autoscroll
slow
fast
+/-
esc
set tempo
stop
Contributor
Difficulty
Tuning
intermediate
D A D G B E
Mariana's Trench - Say Anything
10/14/06
Drop Db

Intro (clean)
Eb|--------------------------------------|
Bb|--------------------------------------|
Gb|--11--9---4---------9---9---4--4------|
Db|--11--9---4-----7---7---9---4--2------|
Ab|--9---7---2-----4---7---7---2--0------|
Db|----------------4---7-----------------|


Riff (dist)
Guitar One
Eb|---------------------------------|
Bb|---------------------------------|
Gb|-----------------xxx-6-----------|
Db|--2---9---7---2--xxx-6--6--------|
Ab|--2---9---7---2--xxx-4--6--------|
Db|--2---9---7---2--xxx----6--------|

Guitar Two
Eb|---------------------------------|
Bb|---------------------------------|
Gb|--11/13--11/13--11/13--11/13/14--|
Db|--x------x------x------x-----x---|
Ab|--9-/11--9-/11--9-/11--9-/11/12--|
Db|---------------------------------|

Eb|------------------------------------------|
Bb|------------------------------------------|
Gb|--11/13--11/13--11/13--11/13/14--13-11/9--|
Db|--x------x------x------x-----x---x--x-----|
Ab|--9-/11--9-/11--9-/11--9-/11/12--11-9-/7--|
Db|------------------------------------------|

Eb|---------------------------------------------------------|
Bb|---------------------------------------------------------|
Gb|--11/13--11/13--11/13--11/13/14---11/13--11/13--11/13----|
Db|--x------x------x------x-----x----x------x------x--------|
Ab|--9-/11--9-/11--9-/11--9-/11/12---9-/11--9-/11--9-/11----|
Db|---------------------------------------------------------|


Verse 1
Bass
Gb|--------------------------------|--------------------------------|
Db|--------------------------------|--------------------------------|
Ab|--------------------------------|--------------------------------|
Db|---4-4-442-2----/9-9---99-9----/|4-4-----7-7-----2-2----/9-9-----|

Gb|--------------------------------|--------------------------------|
Db|--------------------------------|--------------------------------|
Ab|----------------4-4-4-4-2-2-2-2-|------------------------2-2-2-2-|
Db|4-4-4-4/7-7-7-7-----------------|4-4-4-4/7-7-7-7/2-2-2-2---------|

Clean Guitar
Eb|-------------------------------------------|---------------------|
Bb|--------0---4-5-4-0-------5-0---4-5-4-0----|---------------------|
Gb|------6---------------4--------------------|-------------2-2-2x--|
Db|------------------------6------------------|-2-2-2-2-2-2-2-2-2x--|
Ab|----4-----------------------------------x2-|-0-0-0-0-0-0-0-0-0x--|
Db|--4----------------------------------------|-.-.-.-.-------------|


Chorus
Guitar One
Eb|--------------------------------|--------------------------------|
Bb|-----------------------------x2-|--------------------------------|
Gb|--------------------------------|--4----11---9-----9-9xx---------|
Db|--2---9--11-7---4---6h7--7h6----|--2----9----7-----7-7xx---------|
Ab|--2---9--11-7---4---6h7--7h6----|--2----9----7-----7-7xx---------|
Db|--2---9--11-7---4--06h7-07h6---0|--2----9----7-----7-7xx---------|

Guitar Two
Eb|--------------------------------|--------------------------------|
Bb|-----------------------------x2-|--------------------------------|
Gb|--13--11-13-9-------------------|--9----9------9---9-9xx---------|
Db|--x---x--x--x---4---6h7--7h6----|--9----9------9---9-9xx---------|
Ab|--11--9--11-7---4---6h7--7h6----|--7----6------7---7-7xx---------|
Db|----------------4--06h7-07h6---0|---------9h11-7---7-7xx---------|


Verse 2
Eb|------0---0-----0---0-----0-----|-----------------|----------|
Bb|------0---0-----0---0-----0-----|-----------------|----------|
Gb|------11--4-----11--9-----4-----|-----------------|2x--xxx--x|
Db|------11--4-----11--9-----4-----|--pre-chorus w/--|2x--xxx--x|
Ab|--11--9---2-----9---7-----2-----|---clean guitar--|0x--xxx--x| <- add after palm mute
Db|--------------------------------|-----------------|-x--xxx--x|


Repeat Chorus


Bridge
Eb|------|-----------------------------------------------|
Bb|------|--------------------------------------------x4-|
Gb|xxxxxx|-----------------------4--4------6--6----------|
Db|xxxxxx|--7--7-xx-x-2--2--xx-x-4--4-xx-x-6--6--6--6----|
Ab|xxxxxx|--7--7-xx-x-2--2--xx-x-2--2-xx-x-4--4--6--6----|
Db|xxxxxx|--7--7-xx-x-2--2--xx-x------xx-x-------6--6----|

Eb|----------------------------------|-------------------|
Bb|----------------------------------|-------------------|
Gb|----------------------------------|-----------xx-xxxxx|
Db|4-4-4-4-4-4-4-4--7-7-7-7-7-7-7-7--|--------7--xx-xxxxx|
Ab|4-4-4-4-4-4-4-4--7-7-7-7-7-7-7-7--|----7-7-7--xx-xxxxx|
Db|4-4-4-4-4-4-4-4--7-7-7-7-7-7-7-7--|----7-7-7--xx-xxxxx|
                                          .

Final Chorus
Guitar One
Eb|---------------------|
Bb|---------------------|
Gb|---------------------|
Db|--2---9---7---4-4x---|
Ab|--2---9---7---4-4x---|
Db|--2---9---7---4-4x---|

Eb|-------------------------------------|
Bb|-------------------------------------|
Gb|-------------------xxxx--------------|
Db|--2---9---7---4-4x-xxxx--6h7--7h6----|
Ab|--2---9---7---4-4x-xxxx--6h7--7h6----|
Db|--2---9---7---4-4x-xxxx-06h7-07h6---0|

Eb|-----------------------------------------|
Bb|-----------------------------------------|
Gb|------9-----------------9---9---9-9x-----|
Db|--2---9---7---4-----2---9---9---7-7x-----|
Ab|--2---6---7---4-----2---6---7---7-7x-----|
Db|--2-------7---4-----2-------7---7-7x-----|

Guitar Two keeps playing the Riff however many times.


Outro
Eb|-------------------------------------------------------|
Bb|-------------------------------------------------------|
Gb|-------------------------------------------------------|
Db|-x9--9-7--7-xx-xxx-x-9--9-7--7-xx-xxx-xx6--4-----------|
Ab|-x9--9-7--7-xx-xxx-x99--9-7--7-xx-xxx-xx6--4-----------|
Db|-x9--9-7--7-xx-xxx-x99--9-7--7-xx-xxx-xx6--4-----------|
                       .

Currently the best new Canadian band. Mariana's Trench rocks!
comments
print report bad tab
4 comments total. Showing first comments.
0 reply
Spurt wrote on October 18 2006, 07:59 pm

Awesome, awesome tab for an amazing song. I was going to tab it out but you beat me to it!

0 reply
blakiss wrote on December 19 2006, 08:03 pm

dude, why dont you just tab it anyway?

0 reply
Ph4te wrote on January 31 2007, 03:46 pm

Tab out Alibis I cant figure it out

I want to post or [tab]
guest
You may want to rate the tab now too:
select rating
Please do not post tabs as comments. Select "correction" instead!