Oops, an error
Loading. Please wait.

Say Anything Ukulele Chords

version 2
version 2

Whole song

  • ver 2 new
    Contains both chords and tabs for the ukulele, and... Show more

Interactive

1 view 1 this week
no commentswrite comment
1 2 3 4 5
3 more votes to show rating
add to favorites
launch autoscroll
font size
0
reset
transpose
0
reset
display chords
guitar tuner
Autoscroll
slow
fast
+/-
esc
set tempo
stop
Help us to improve Ultimate-Guitar.com Take our survey!
×
Author
Difficulty
novice
About this tab version
Contains both chords and tabs for the ukulele, and also has some alternative chords for the different pitches in the song. Was this info helpful? Yes No
The roman numerals are indicating where the tabs (located at the bottom) should be played.

Additional chords that can be played if you want to:
Fm* (A higher version)  5, 5, 4, 3
Cm* (A lower version)   0, 2, 2, X
Fm** (A lower version)  1, 0, 1, X


[Intro]

Fm                     Ab
I never took you for a trick but
Eb
Sometimes I don't know what you want
Fm                   Ab
I can take it if you need to
   Eb     Bb     Ab
Take this out on someone
Eb        |
Bb        |
Ab        |-(I)
Eb (Bb)   |
Cm Cm*    |

[Verse]

Fm                         Ab        Eb
That little bitch with her head held so high
Bb
Talking shit and I
Fm                  Ab
Cut myself so I can feel something
Eb Bb
I know is not a lie

Fm             Ab
That one stings a little
Eb         Bb
I'm always in the middle
Fm            Ab
I don't expect, but try me
Eb           Bb
And you will always find me here
Ab
This is where I scream from

[Chorus]

Eb                                 Bb
Yeah, you can take it all away and I'll miss
                               Ab
There's a little bit of you in all of this
                     Fm
You can say you only think you know
     (II)
Yeah
Eb                                    Bb
Please, there's a better bit of me to see yet
                               Ab
'Cause you haven't seen any of my best
                               Fm
You know I hate myself without you now
    (III)
Yeah
Eb                         Bb
Hurts the same when nobody knows
                         Ab
Guess that's just how it goes
       Fm*
And I, I wont say anything at all

[Verse]

Fm                   Ab
I was talking on the dollar sign
Eb       Bb
Anxious, scared of what you need
Fm                Ab
Everybody wants a piece of you
Eb       Bb
Everyone takes a piece of me

Fm       Ab
That one stings a little
Eb         Bb
I'm always in the middle
Fm            Ab
I don't expect, but try me
Eb           Bb
And you will always find me here
Ab
This is where I scream from

[Chorus]

Eb                                 Bb
Yeah, you can take it all away and I'll miss
                               Ab
There's a little bit of you in all of this
                         Fm
And you can say you only think you know
    (IV)
Yeah
Eb                                        Bb
Oh. Please, there's a better bit of me to see yet
                               Ab
'Cause you haven't seen any of my best
                               Fm
You know I hate myself without you now
    (V)
Yeah
Eb                         Bb
Hurts the same when nobody knows
                         Ab
Guess that's just how it goes
       [ch[Fm[/ch]*
And I, I won't say anything at all

[Bridge]

Ab    Eb    Bb  Cm
  I-e-i I-e-i
Cm*         Ab
This is the hook
               Eb
Take it like I took
                   Bb
I'm shaking like I shook before
Cm             Cm*            Ab
I'm never ever getting better off
               Eb
And I can only watch
                   Bb
This is where I've stopped before
    Cm                  Cm*
And now that you have a piece of me
Ab      Eb        Bb    Cm Cm*
I always slip away from
Fm                 Ab
I always slip away from

[Chorus]

Eb                       |
Bb                       |
Ab                       |-(VI)
Fm**                     |
I wont say anything but  |
Eb                                 Bb         |
Yeah, you can take it all away and I'll miss  |
                               Ab             |
There's a little bit of you in all of this    |-(VII)
                         Fm                   |
And you can say you only think you know       |
    (VIII)
Yeah
Eb                                    Bb       |
Please, there's a better bit of me to see yet  |
                              Ab               |
'Cause you haven't seen any of my best         |-(IX)
                Fm*                            |
You know I hate myself                         |
Eb                         Bb      |
Hurts the same when nobody knows   |
                         Ab        |
Guess that's just how it goes      |-(X)
       Fm            (Bb)          |
And I, I wont say anything at all  |
Fm            (Bb)
I wont say anything at all
Fm                (Bb)      Fm**
And I wont say anything at all

--------------------------------------------------------------------------------------------------------------

This is the ukulele tab. On the chords above I wrote labels for when each are supposed to be played.

[I]

A|---------------------------------------------------------------------------|
E|---3---3---3---3-4-4-4-4-4----3---3---3---3-4-4-3-1------------------------|
C|-5---5---5---5--------------5---5---5---5-----------3----------------------|
G|---------------------------------------------------------------------------|

A|-----------------------------------------3-X-------------------------------|
E|---3---3---3---3-4-4-4-4-4----3---3---3--3-3-------------------------------|
C|-5---5---5---5--------------5---5---5----3-3-------------------------------|
G|-----------------------------------------0-0-------------------------------|


[II+III+IV+V]

A|---------------1-----------------------------------------------------------|
E|-----3----3----3-----------------------------------------------------------|
C|-3-5----5---5--3-----------------------------------------------------------|
G|---------------3-----------------------------------------------------------|


[VI]

A|---------------------------------------------------------------------------|
E|---3---3---3---3-4-4-4-4-4----3---3---3---3-4-4-3-1------------------------|
C|-5---5---5---5--------------5---5---5---5-----------3----------------------|
G|---------------------------------------------------------------------------|

A|----------------------------X-X--------------------------------------------|
E|---3---3---3---3-4-4-4-4-4--1-1--------------------------------------------|
C|-5---5---5---5-------------------------------------------------------------|
G|----------------------------1-1--------------------------------------------|


[VII]

A|---------------------------------------------------------------------------|
E|---3---3---3---3-4_________---3---3---3---3-4__-3-1------------------------|
C|-5---5---5---5--------------5---5---5---5-----------3----------------------|
G|---------------------------------------------------------------------------|

A|----------------------------3-3--------------------------------------------|
E|---3---3---3---3-4________--1-1--------------------------------------------|
C|-5---5---5---5-------------------------------------------------------------|
G|----------------------------1-1--------------------------------------------|


[VIII]

A|--------------1-------------------------------------------------------------|
E|-----3---3----3-------------------------------------------------------------|
C|-3-5---5---5--3-------------------------------------------------------------|
G|--------------3-------------------------------------------------------------|


[IX]

A|---------------------------------------------------------------------------|
E|---3---3---3---3-4_________---3---3---3---3-4__-3-1------------------------|
C|-5---5---5---5--------------5---5---5---5-----------3----------------------|
G|---------------------------------------------------------------------------|

A|---------------------------------------------------------------------------|
E|---3---3---3---3-4________-------------------------------------------------|
C|-5---5---5---5-------------------------------------------------------------|
G|---------------------------------------------------------------------------|


[X]

A|---------------------------------------------------------------------------|
E|---3---3---3---3-4_________---3---3---3---3-4__-3-1------------------------|
C|-5---5---5---5--------------5---5---5---5-----------3----------------------|
G|---------------------------------------------------------------------------|

A|----------------------------3-3--------------------------------------------|
E|---3---3---3---3__________--1-1--------------------------------------------|
C|-5---5---5---5--------------0-0--------------------------------------------|
G|----------------------------1-1--------------------------------------------|


************************************

| x   Dead note
| _   Hold

************************************
Suggest correction
Give kudos to tab author, rate the tab!
1 2 3 4 5
comments
print report bad tab
guest
You may want to rate the tab now too:
select rating
Wanna post a correction for this tab? Suggest correction