Oops, an error
Loading. Please wait.

September Tab

version 3
version 3

Whole song

473 views 1 this week
no commentswrite comment
1 2 3 4 5
please rate
add to favorites
launch autoscroll
font size
0
reset
how to read this tab
guitar tuner
Autoscroll
slow
fast
+/-
esc
set tempo
stop
Help us to improve Ultimate-Guitar.com Take our survey!
×
Author
----------------------------------------------------------------------------
                             SEPTEMBER - Marianas Trench
----------------------------------------------------------------------------
Tabbed by: Maegan Trottier
Email: xo.turn.it.up.ox@hotmail.com

Tuning: Standard (E, A, D, G, B, e)

Intro/Verse - 2x
e|---------------------------------------------------------------------------|
B|---------------------------------------------------------------------------|
G|---------------------------------------------------------------------------|
D|-6-(7x)--------------------------------------------------------------------|
A|-4-(7x)-6-(7x)-4-(7x)-7-(3x)-7-(3x)-4-(7x)-7-(3x)-7-(3x)-4-(7x)-2-6-6-6----|
E|--------4-(7x)-2-(7x)-5-(3x)-5-(3x)-2-(7x)-5-(3x)-5-(3x)-2-(7x)-0-4-4-4----|

Pre-Chorus
e|-0--------------------0----------------------------------------------------|
B|-0--------------------0----------------------------------------------------|
G|-1-----------6--------1-----6-6-6-6--9-9-9-9--5-5-5-5--11-11-11-11---------|
D|-2-----------6--------2----------------------------------------------------|
A|-2-----------4--------2-----4-4-4-4--7-7-7-7--6-6-6-6---9--9--9--9---------|
E|-0--------------------0----------------------------------------------------|

Chorus - 2x
e|-----xxx------xxx------xxx------x------------------------------------------|
B|-----xxx------xxx------xxx------x------------------------------------------|
G|-----xxx------xxx------xxx------x------------------------------------------|
D|-----xxx--6-6-xxx------xxx--4-4-x------------------------------------------|
A|-2-2-xxx--4-4-xxx--6-6-xxx--2-2-x--4-4-------------------------------------|
E|-0-0-xxx-----------4-4-xxx--2-2-x--2-2-------------------------------------|

e|-----xxx------xxx------xxx------x------------------------------------------|
B|-----xxx------xxx------xxx------x------------------------------------------|
G|-----xxx------xxx------xxx------x------------------------------------------|
D|-----xxx--6-6-xxx--4-4-xxx------x------------------------------------------|
A|-2-2-xxx--4-4-xxx--2-2-xxx--4-4-x--7-7-7-----------------------------------|
E|-0-0-xxx-----------2-2-xxx--2-2-x--5-5-5-----------------------------------|

Intro/Verse - 3x
e|---------------------------------------------------------------------------|
B|---------------------------------------------------------------------------|
G|---------------------------------------------------------------------------|
D|-6-(7x)--------------------------------------------------------------------|
A|-4-(7x)-6-(7x)-4-(7x)-7-(3x)-7-(3x)-4-(7x)-7-(3x)-7-(3x)-4-(7x)-2-6-6-6----|
E|--------4-(7x)-2-(7x)-5-(3x)-5-(3x)-2-(7x)-5-(3x)-5-(3x)-2-(7x)-0-4-4-4----|

Pre-Chorus
e|-0--------------------0----------------------------------------------------|
B|-0--------------------0----------------------------------------------------|
G|-1-----------6--------1-----6-6-6-6--9-9-9-9--5-5-5-5--11-11-11-11---------|
D|-2-----------6--------2----------------------------------------------------|
A|-2-----------4--------2-----4-4-4-4--7-7-7-7--6-6-6-6---9--9--9--9---------|
E|-0--------------------0----------------------------------------------------|

Chorus - 2x
e|-----xxx------xxx------xxx------x------------------------------------------|
B|-----xxx------xxx------xxx------x------------------------------------------|
G|-----xxx------xxx------xxx------x------------------------------------------|
D|-----xxx--6-6-xxx------xxx--4-4-x------------------------------------------|
A|-2-2-xxx--4-4-xxx--6-6-xxx--2-2-x--4-4-------------------------------------|
E|-0-0-xxx-----------4-4-xxx--2-2-x--2-2-------------------------------------|

e|-----xxx------xxx------xxx------x------------------------------------------|
B|-----xxx------xxx------xxx------x------------------------------------------|
G|-----xxx------xxx------xxx------x------------------------------------------|
D|-----xxx--6-6-xxx--4-4-xxx------x------------------------------------------|
A|-2-2-xxx--4-4-xxx--2-2-xxx--4-4-x--7-7-7-----------------------------------|
E|-0-0-xxx-----------2-2-xxx--2-2-x--5-5-5-----------------------------------|

Bridge 
e|---------------------------------------------------------------------------|
B|---------------------------------------------------------------------------|
G|---------------------------------------------------------------------------|
D|--------------------------------------2------------------------------------|
A|-2/9-11-2/9-11-2/11-6-4--2-3-2-3-(3x)-2------------------------------------|
E|-0/7-9--0/7-9--0/9--4-2--0-1-0-1-(3x)-----9-8------------------------------|

Chorus - 2x
e|-----------------------xxx------x------------------------------------------|
B|-----------------------xxx------x------------------------------------------|
G|-----------------------xxx------x------------------------------------------|
D|-----------------------xxx--4-4-x------------------------------------------|
A|-2-2---------------6-6-xxx--2-2-x--4-4-------------------------------------|
E|-0-0---------------4-4-xxx--2-2-x--2-2-------------------------------------|

e|-----xxx------xxx------xxx------x------------------------------------------|
B|-----xxx------xxx------xxx------x------------------------------------------|
G|-----xxx------xxx------xxx------x------------------------------------------|
D|-----xxx--6-6-xxx--4-4-xxx------x------------------------------------------|
A|-2-2-xxx--4-4-xxx--2-2-xxx--4-4-x--7-7-7\-----------------------------------|
E|-0-0-xxx-----------2-2-xxx--2-2-x--5-5-5\-----------------------------------|

Outro
e|---------------------------------------------------------------------------|
B|---------------------------------------------------------------------------|
G|---------------------------------------------------------------------------|
D|---------------------------------------------------------------------------|
A|-2/11-6-4--2-3-2-3---------------------------------------------------------|
E|-0/9--4-2--0-1-0-1---------------------------------------------------------|


| /  slide up
| \  slide down
| h  hammer-on
| p  pull-off
| ~  vibrato
| +  harmonic
| x  Mute note
===============================================================================
Suggest correction new What's this?
You can suggest a correction to this tab. Community and Mods will review your correction and vote to approve or reject it.
comments
We did not receive enough feedback on this tab! Please rate:
print report bad tab
1 2 3 4 5
guest
You may want to rate the tab now too:
select rating
Please do not post tabs as comments. Select "correction" instead!