Oops, an error
Loading. Please wait.

Sing Sing Tab

version 1
version 1

Whole song

9,769 views 7 this week
1 commentread comment
1 2 3 4 5
excellent!
x 4
add to favorites
launch autoscroll
font size
0
reset
how to read this tab
guitar tuner
Tab Pro tools
  • play this tab
  • loop segment
  • change instrument
  • show fretboard
  • metronome
×
Best way to learn
"Sing Sing"
Autoscroll
slow
fast
+/-
esc
set tempo
stop
Contributor
-------------------------------------------------------------------------------
                             Sing Sing - Marianas Trench
-------------------------------------------------------------------------------
Tabbed by: Tobias Rezende
Email:

Tuning: DADGBE


Verse 1 

               0:08 - 0:13 

e|----------------------------------------|
B|----------------------------------------|
G|--------11----------------11------------|
D|-14--12----11-11-12-14-12----11-11-12-9\|
A|-12--12-12-12-12-12-12-12-12-12-12-12-9\|
D|----------------------------------------|

               0:16 - 0:20

e|---------------------------------|
B|---------------------------------|
G|-------11----------------11------|
D|-14-12----11-11-12-14-12----7-9-5|
A|-12-12-12-12-12-12-12-12-12-5-9-5|
D|---------------------------------|


Pre Chorus

               0:20 - 0:35

e|-----------------------------------------|
B|-----------------------------------------|
G|-----------------------------------------|
D|-5555-7777-5555-7777-5555-7777-----------|
A|-5555-5555-5555-5544-5555-5544-99-222-777|
D|-5555------5555------5555------99-222-777|

Chorus

               0:36 - 0:55

e|------------------------------|
B|------------------------------|
G|------------------------------|
D|-555-777-777777-555-777-777777|
A|-555-555-777777-555-555-777777|
D|-555-----777777-555-----777777|

e|-------------------------------------------|
B|-------------------------------------------|
G|-------------------------------------------|
D|-555-777-7777-99-77-55555-000-7777-99-77-5~|
A|-555-555-7777-99-77-55555-000-7777-99-77-5~|
D|-555-----7777-99-77-55555-000-7777-99-77-5~|

Verse 2

               0:55 - 0:57

e|------|
B|------|
G|------|
D|-7-7-9|
A|-5-7-9|
D|------|

               1:00 - 1:05 

e|----------------------------------------|
B|----------------------------------------|
G|--------11----------------11------------|
D|-14--12----11-11-12-14-12----11-11-12-9\|
A|-12--12-12-12-12-12-12-12-12-12-12-12-9\|
D|----------------------------------------|

               1:08 - 1:12

e|---------------------------------|
B|---------------------------------|
G|-------11----------------11------|
D|-14-12----11-11-12-14-12----7-9-5|
A|-12-12-12-12-12-12-12-12-12-5-9-5|
D|---------------------------------|

Pre Chorus 

               1:12 - 1:27

e|-----------------------------------------|
B|-----------------------------------------|
G|-----------------------------------------|
D|-5555-7777-5555-7777-5555-7777-----------|
A|-5555-5555-5555-5544-5555-5544-99-222-777|
D|-5555------5555------5555------99-222-777|


Chorus

               1:28 - 1:44

e|------------------------------|
B|------------------------------|
G|------------------------------|
D|-555-777-777777-555-777-777777|
A|-555-555-777777-555-555-777777|
D|-555-----777777-555-----777777|

e|---------------------------------------|
B|---------------------------------------|
G|---------------------------------------|
D|-555-777-7777-99-77-55555-000-7777-4444|
A|-555-555-7777-99-77-55555-000-7777-4444|
D|-555-----7777-99-77-55555-000-7777-4444|

Outro 
      
               2:11 - 2:16

e|-------------------|
B|-------------------|
G|-------2222-33-3333|
D|-------2222-22-2222|
A|-------0000-11-----|
D|-16\---------------|

Pre Chorus

               2:16 - 2:31

e|-------------------------------------------|
B|-------------------------------------------|
G|-----------------------------------------33|
D|-5555-7777-5555-999-777-5555-7777--------22|
A|-5555-5555-5555-999-777-5555-5544-99-222-11|
D|-5555------5555-999-777-5555------99-222---|

Chours

               2:33 - 3:07

e|------------------------------|
B|------------------------------|
G|------------------------------|
D|-555-777-777777-555-777-777777|
A|-555-555-777777-555-555-777777|
D|-555-----777777-555-----777777|

e|----------------------------------------|
B|----------------------------------------|
G|----------------------------------------|
D|-555-777-7777-99-77-55555-000-7777-99-77|
A|-555-555-7777-99-77-55555-000-7777-99-77|
D|-555-----7777-99-77-55555-000-7777-99-77|

e|----------------------------------------------------------------|
B|----------------------------------------------------------------|
G|----------------------------------------------------------------|
D|-555-777-7777-555-777-7777-555-777-7777-99-77-555-999-77777-4444|
A|-555-555-7777-555-555-7777-555-555-7777-99-77-555-999-77777-4444|
D|-555-----7777-555-----7777-555-----7777-99-77-555-999-77777-4444|

End

               3:10 - 3:12

e|------|
B|------|
G|------|
D|-7-7-9|
A|-5-7-9|
D|---7-9|

| /  slide up
| \  slide down
| h  hammer-on
| p  pull-off
| ~  vibrato
| +  harmonic
| x  Mute note
===============================================================================
comments
print report bad tab
1 comment total.
0 reply
MWebb wrote on March 4 2009, 06:12 pm

i was just watching live videos,
and matt plays this down around fret three area.

i'm not quite sure I have it figured out yet,
but if you could correct it to that, that would be awesome :)

I want to post or [tab]
guest
You may want to rate the tab now too:
select rating
Please do not post tabs as comments. Select "correction" instead!