Oops, an error
Loading. Please wait.

Sing Sing Tab

version 2
version 2

Whole song

2,002 views 6 this week
no commentswrite comment
1 2 3 4 5
please rate
add to favorites
launch autoscroll
font size
0
reset
how to read this tab
guitar tuner
Tab Pro tools
  • play this tab
  • loop segment
  • change instrument
  • show fretboard
  • metronome
Autoscroll
slow
fast
+/-
esc
set tempo
stop
Contributor
Marianas Trench - Sing Sing

Tuning: Drop D

Notes: 1) Some of the first ending (see ? marks) and the last bar of the Bridge
          aren't clear to me, but maybe you've got the keen ear to figure it out.
       2) Cut and paste this file into your favourite word processing application
          and set the whole text to 10- or 11-point MS Gothic for easy viewing.

** Intro (4-bar drum break) **

** Verse 1 (starts with 4 bars rest for Guitar) **
                                            ________________________ ___________
        (leave 4 bars rest between repeats)   1.                    |  2.  
||----------2--|-(2)----------|---------2--|-(2)----------|--------||-----------|
||--5---3---3--|-(3)-2--2--3--|-5---3---3--|-(3)-2--2--3--|-3\-----||---?-------|
||*-2---2---2--|-(2)-2--2--2--|-2---2---2--|-(2)-2--2--2--|-4\----*||---?--7----|
||*-2---2---2--|-(2)-2--2--2--|-2---2---2--|-(2)-2--2--2--|-4\----*||---?--7--7-|
||-------------|--------------|------------|--------------|-2\-----||---?--5--7-|
||-------------|--------------|------------|--------------|--------||---------7-|

---------|---------|---------|---------|---------|---------|---------|---------|
---------|---------|---------|---------|---------|---------|---------|---------|
---------|---------|-7-7-7-7-|-7-7-7-7-|---------|---------|-7-7-7-7-|-7-7-7-7-|
-5-5-5-5-|-5-5-5-5-|-7-7-7-7-|-7-7-7-7-|-5-5-5-5-|-5-5-5-5-|-7-7-7-7-|-7-7-7-7-|
-5-5-5-5-|-5-5-5-5-|-5-5-5-5-|-5-5-5-5-|-5-5-5-5-|-5-5-5-5-|-5-5-5-5-|-4-4-4-4-|
-5-5-5-5-|-5-5-5-5-|---------|---------|-5-5-5-5-|-5-5-5-5-|---------|---------|

---------|---------|---------|---------|---------|---------|---------|---------|
---------|---------|---------|---------|---------|---------|---------|---------|
---------|---------|-7-7-7-7-|-4-4-4-4-|---------|---------|-2-2-2-2-|-2-------|
-5-5-5-5-|-5-5-5-5-|-7-7-7-7-|-4-4-4-4-|-2-2-2-2-|-2-2-2-2-|-2-2-2-2-|-2-------|
-5-5-5-5-|-5-5-5-5-|-5-5-4-4-|-2-2-2-2-|-2-2-2-2-|-2-2-2-2-|-0-0-0-0-|-0-------|
-5-5-5-5-|-5-5-5-5-|---------|---------|-2-2-2-2-|-2-2-2-2-|---------|---------|

** Chorus 1 **

---------|---------|---------|---------|---------|---------|---------|---------|
---------|---------|---------|---------|---------|---------|---------|---------|
---------|-7-7-7-7-|---------|---------|---------|-7-7-7-7-|---------|---------|
-5-5-5-5-|-7-7-7-7-|-7-7-7-7-|-7-7-7-7-|-5-5-5-5-|-7-7-7-7-|-7-7-7-7-|-7-7-7-7-|
-5-5-5-5-|-5-5-5-5-|-7-7-7-7-|-7-7-7-7-|-5-5-5-5-|-5-5-5-5-|-7-7-7-7-|-7-7-7-7-|
-5-5-5-5-|---------|-7-7-7-7-|-7-7-7-7-|-5-5-5-5-|---------|-7-7-7-7-|-7-7-7-7-|

---------|---------|---------|---------|---------|---------|---------|---------|
---------|---------|---------|---------|---------|---------|---------|---------|
---------|-7-7-7-7-|---------|---------|---------|---------|---------|---------|
-5-5-5-5-|-7-7-7-7-|-7-7-7-7-|-9-9-7-7-|-5-5-5-5-|-0-0-0-0-|-7-7-7-7-|-9-9-7-7-|
-5-5-5-5-|-5-5-5-5-|-7-7-7-7-|-9-9-7-7-|-5-5-5-5-|-0-0-0-0-|-7-7-7-7-|-9-9-7-7-|
-5-5-5-5-|---------|-7-7-7-7-|-9-9-7-7-|-5-5-5-5-|-0-0-0-0-|-7-7-7-7-|-9-9-7-7-|

       ---------|---------|---------|---------|---------|
Chorus ---------|---------|---------|---------|---------|
  Tag  ---------|---------|---------|-----7---|---------|
       -5-------|-(5)-----|-(5)-----|-(5)-7-7-|-9\------|
       -5-------|-(5)-----|-(5)-----|-(5)-5-7-|-9\------|
       -5-------|-(5)-----|-(5)-----|-(5)---7-|-9\------|

** Verse 2 (play Verse 1 figure) **

** Chorus 2 (play Chorus 1 figure, except replace last bar with the following) **

---------|
---------|
-4-4-3-3-|
-4-4-4-4-|
-4-4-4-4-|
-4-4-4-4-|

** Bridge (starts with 27 bars rest) **

-----|---------|---------|-0---0---|-------0-|
-----|-2---2---|-2---2---|-2---2---|-----2---|
-----|-2---2---|-2---2---|-3---3---|---3-----|
-----|-2---2---|-2---2---|-4---4---|-4-------|
-----|-0---0---|-0---0---|-1---1-1-|---------|
-10\-|---------|---------|---------|---------|

** Verse 3 (ends with brief stop-time) **

---------|---------|---------|---------|---------|---------|---------|---------|
---------|---------|---------|---------|---------|---------|---------|---------|
---------|---------|-7-7-7-7-|-7-7-7-7-|---------|---------|---------|---------|
-5-5-5-5-|-5-5-5-5-|-7-7-7-7-|-7-7-7-7-|-5-5-5-5-|-5-5-5-5-|-9-9-9-9-|-7-7-7-7-|
-5-5-5-5-|-5-5-5-5-|-5-5-5-5-|-5-5-5-5-|-5-5-5-5-|-5-5-5-5-|-9-9-9-9-|-7-7-7-7-|
-5-5-5-5-|-5-5-5-5-|---------|---------|-5-5-5-5-|-5-5-5-5-|-9-9-9-9-|-7-7-7-7-|

---------|---------|---------|---------|---------|---------|---------|---------|
---------|---------|---------|---------|---------|---------|---------|---------|
---------|---------|-7-7-7-7-|-4-4-4-4-|---------|---------|-3-3-3-3-|-3-------|
-5-5-5-5-|-5-5-5-5-|-7-7-7-7-|-4-4-4-4-|-2-2-2-2-|-2-2-2-2-|-4-4-4-4-|-4-------|
-5-5-5-5-|-5-5-5-5-|-5-5-4-4-|-2-2-2-2-|-2-2-2-2-|-2-2-2-2-|-4-4-4-4-|-4-------|
-5-5-5-5-|-5-5-5-5-|---------|---------|-2-2-2-2-|-2-2-2-2-|-4-4-4-4-|-4-------|

** Chorus 3 (play Chorus 1 figure) **

** Chorus 4 **

---------|---------|---------|---------|---------|---------|---------|---------|
---------|---------|---------|---------|---------|---------|---------|---------|
---------|-7-7-7-7-|---------|---------|---------|-7-7-7-7-|---------|---------|
-5-5-5-5-|-7-7-7-7-|-7-7-7-7-|-7-7-7-7-|-5-5-5-5-|-7-7-7-7-|-7-7-7-7-|-7-7-7-7-|
-5-5-5-5-|-5-5-5-5-|-7-7-7-7-|-7-7-7-7-|-5-5-5-5-|-5-5-5-5-|-7-7-7-7-|-7-7-7-7-|
-5-5-5-5-|---------|-7-7-7-7-|-7-7-7-7-|-5-5-5-5-|---------|-7-7-7-7-|-7-7-7-7-|

---------|---------|---------|---------|---------|---------|---------|---------|
---------|---------|---------|---------|---------|---------|---------|---------|
---------|-7-7-7-7-|---------|---------|---------|---------|---------|---------|
-5-5-5-5-|-7-7-7-7-|-7-7-7-7-|-9-9-7-7-|-5-5-5-5-|-9-9-9-9-|-7-7-7-7-|-7-7-7-7-|
-5-5-5-5-|-5-5-5-5-|-7-7-7-7-|-9-9-7-7-|-5-5-5-5-|-9-9-9-9-|-7-7-7-7-|-7-7-7-7-|
-5-5-5-5-|---------|-7-7-7-7-|-9-9-7-7-|-5-5-5-5-|-9-9-9-9-|-7-7-7-7-|-7-7-7-7-|

---------|---------|---------|---------|---------|---------|---------|
---------|---------|---------|---------|---------|---------|---------|
-4-4-4-4-|-3-3-3-3-|---------|---------|---------|-----7---|---------|
-4-4-4-4-|-4-4-4-4-|---------|---------|---------|-----7-7-|-9\------|
-4-4-4-4-|-4-4-4-4-|---------|---------|---------|-----5-7-|-9\------|
-4-4-4-4-|-4-4-4-4-|---------|---------|---------|-------7-|-9\------|
comments
We did not receive enough feedback on this tab! Please rate:
print report bad tab
1 2 3 4 5
I want to post or [tab]
guest
You may want to rate the tab now too:
select rating
Please do not post tabs as comments. Select "correction" instead!