Oops, an error
Loading. Please wait.

Sing Sing Tab

version 3
version 3

Whole song

43 views 1 this week
no commentswrite comment
1 2 3 4 5
please rate
add to favorites
launch autoscroll
font size
0
reset
how to read this tab
guitar tuner
Tab Pro tools
  • play this tab
  • loop segment
  • change instrument
  • show fretboard
  • metronome
Autoscroll
slow
fast
+/-
esc
set tempo
stop
Contributor
Difficulty
intermediate
Verse 1 
0:08 - 0:13 

E|----------------------------------------|
B|----------------------------------------|
G|--------11----------------11------------|
D|-14--12----11-11-12-14-12----11-11-12-9\|
A|-12--12-12-12-12-12-12-12-12-12-12-12-9\|
D|----------------------------------------|

0:16 - 0:20

E|---------------------------------|
B|---------------------------------|
G|-------11----------------11------|
D|-14-12----11-11-12-14-12----7-9-5|
A|-12-12-12-12-12-12-12-12-12-5-9-5|
D|---------------------------------|

Pre Chorus
0:20 - 0:35

E|-----------------------------------------|
B|-----------------------------------------|
G|-----------------------------------------|
D|-5555-6777-5555-6777-5555-6777-----------|
A|-5555-4555-5555-4555-5555-4555-99-222-777|
D|-5555------5555------5555------99-222-777|

Chorus
0:36 - 0:55

E|------------------------------|
B|------------------------------|
G|------------------------------|
D|-555-677-777777-555-677-777777|
A|-555-455-777777-555-455-777777|
D|-555-----777777-555-----777777|

E|------------------------------------------|
B|------------------------------------------|
G|------------------------------------------|
D|-555-677-7777-99-77-55555-00-7777-99-77-5~|
A|-555-455-7777-99-77-55555-00-7777-99-77-5~|
D|-555-----7777-99-77-55555-00-7777-99-77-5~|

Verse 2
0:55 - 0:57

E|------|
B|------|
G|------|
D|-7-7-9|
A|-5-7-9|
D|------|

1:00 - 1:05 

E|----------------------------------------|
B|----------------------------------------|
G|--------11----------------11------------|
D|-14--12----11-11-12-14-12----11-11-12-9\|
A|-12--12-12-12-12-12-12-12-12-12-12-12-9\|
D|----------------------------------------|

1:08 - 1:12

E|---------------------------------|
B|---------------------------------|
G|-------11----------------11------|
D|-14-12----11-11-12-14-12----6-9-5|
A|-12-12-12-12-12-12-12-12-12-4-9-5|
D|---------------------------------|

Pre Chorus 
1:12 - 1:27

E|-----------------------------------------|
B|-----------------------------------------|
G|-----------------------------------------|
D|-5555-6777-5555-6777-5555-6777-----------|
A|-5555-4555-5555-4555-5555-4555-99-222-777|
D|-5555------5555------5555------99-222-777|

Chorus
1:28 - 1:44

E|------------------------------|
B|------------------------------|
G|------------------------------|
D|-555-677-777777-555-677-777777|
A|-555-455-777777-555-455-777777|
D|-555-----777777-555-----777777|

E|--------------------------------------|
B|--------------------------------------|
G|--------------------------------------|
D|-555-677-7777-99-77-55555-00-7777-4444|
A|-555-455-7777-99-77-55555-00-7777-4444|
D|-555-----7777-99-77-55555-00-7777-4444|

Outro 
2:11 - 2:16

E|-------------------|
B|-------------------|
G|-------2222-33-3333|
D|-------2222-22-2222|
A|-------0000-11-----|
D|-15\---------------|

Pre Chorus
2:16 - 2:31

E|--------------------------------------------|
B|--------------------------------------------|
G|------------------------------------------33|
D|-5555-6777-5555-999-777-5555-6777---------22|
A|-5555-4555-5555-999-777-5555-4555-999-222-11|
D|-5555------5555-999-777-5555------999-222---|

Chours
2:33 - 3:07

E|------------------------------|
B|------------------------------|
G|------------------------------|
D|-555-677-777777-555-677-777777|
A|-555-455-777777-555-455-777777|
D|-555-----777777-555-----777777|

E|----------------------------------------|
B|----------------------------------------|
G|----------------------------------------|
D|-555-677-7777-99-77-55555-000-7777-99-77|
A|-555-455-7777-99-77-55555-000-7777-99-77|
D|-555-----7777-99-77-55555-000-7777-99-77|

E|---------------------------------------------------------------|
B|---------------------------------------------------------------|
G|---------------------------------------------------------------|
D|-555-677-7777-555-677-7777-555-677-7777-99-77-555-999-7777-4444|
A|-555-455-7777-555-455-7777-555-455-7777-99-77-555-999-7777-4444|
D|-555-----7777-555-----7777-555-----7777-99-77-555-999-7777-4444|

End
3:10 - 3:12

E|-------|
B|-------|
G|-------|
D|--7-7-9|
A|--5-7-9|
D|----7-9|

|  /  slide up
|  \  slide down
|  h  hammer-on
|  p  pull-off
|  ~  vibrato
|  +  harmonic
|  x  Mute note
===============================================================================
comments
We did not receive enough feedback on this tab! Please rate:
print report bad tab
1 2 3 4 5
I want to post or [tab]
guest
You may want to rate the tab now too:
select rating
Please do not post tabs as comments. Select "correction" instead!