Oops, an error
Loading. Please wait.

Adios Juan Pablo Ii Tab

5 views 1 this week
no commentswrite comment
1 2 3 4 5
3 more votes to show rating
add to favorites
launch autoscroll
font size
0
reset
how to read this tab
guitar tuner
×
Best way to learn
"Adios Juan Pablo II"
Autoscroll
slow
fast
+/-
esc
set tempo
stop
 A                                   (*)
-------------------------------------------------/E
-0-------------0-----------0----------0---------- A
------------------------------------------------- D
--2-2-2------2--2-2-2-------2-2-2---2--2-2-2---2- G
-2-2-2-2-2-0---2-2-2-2-2-0---2-2-2-0--2-2-2-2-0-- B
---------------------------0---------------------\e


Voz                                E         D
-----------------------------------0----------------------------------/E
-0------------0---------0--------------------------------------------- A
---------------------------------------------0------------0----------- D
--2-2-2-----2--2-2-2-----2-2-2---2--1-1-1-1---2--2-2----2--2-2-2---2-- G
---2-2-2-2-0--2-2-2-2-0---2-2-2-0--0-0---0-0---3------------3--------- B
-0----------------------0--------------0-----2----2--3-2--2---2-3-2---\e


A          E        D(+)       A                           De aqui se repite desde donde
-----------0-------------------------------------------/E  empieza la voz y pasa a coro
0------------------------------0----------0------------ A
--------------------0---------------------------------- D
-2-2-2---2--1-1-1-1--2-2-2---2--2-2-2---2--2-2-2------- G
2-2-2-2-0--0-0---0----3--------2-2-2-2-0--2-2-2-2-2-0-- B
---------------0----2---2-3-2--------------------------\e


Esta secuencia es del coro       de aqui a la señal (*)y sigue sin repetir hasta fin
D   D   A   D   D   A   E   D   A

FIN                               1/2 cejilla en el 2° traste
 A          D          A
--------------------------------0--/
-0---------------------0--------0--
------------0-----------------2-2--
--2-2-2---2--2-2-2---2--2-2--2--2--
-2-2-2-2-0----3----------2--2---2--
------------2---2-3-2--0---0----5--\
SIEMPREEEEEEEEEEEEEEEEEEEEEEEEEE

 D(+): De este D, La 2a vez es un rasgueo y en A el mismo arpegio y despues 8 rasgueos
       rapidos hacia abajo para entrar al coro.
 NOTA:LA GUITARRA SE AFINA DE LA SIGUIENTE MANERA:
      Eb,Ab,Db,Gb,Bb,Eb
Suggest correction
Give kudos to tab author, rate the tab!
1 2 3 4 5
comments
print report bad tab
guest
You may want to rate the tab now too:
select rating
Wanna post a correction for this tab? Suggest correction