Oops, an error
Loading. Please wait.

Lasko Vonis Destem Tab

version 2
version 2

Whole song

  • Very simple tab, easy to remember. Everything impo... Show more
10 views 1 this week
no commentswrite comment
1 2 3 4 5
2 more votes to show rating
add to favorites
launch autoscroll
font size
0
reset
how to read this tab
guitar tuner
Autoscroll
slow
fast
+/-
esc
set tempo
stop
Help us to improve Ultimate-Guitar.com Take our survey!
×
Author
Difficulty
novice
About this tab version
Very simple tab, easy to remember. Everything important is done only on D and G string, also sounds almost the same as the original. Was this info helpful? Yes No
Marie Rottrová - Lásko voníš deštěm

E|-----------0-----------0--|-----------0-----------0--|
B|--------0-----0-----------|--------0-----0-----------|
G|-----0-----------0--------|-----0-----------0--------|
D|--9-----------------9-----|--9-----------------9-----|
A|--------------------------|--------------------------|
E|--------------------------|--------------------------|
 
E|-----------0-----------0--|-----------0-----------0--|
B|--------0-----0-----------|--------0-----0-----------|
G|-----8-----------8--------|-----8-----------8--------|
D|--9-----------------9-----|--9-----------------9-----|
A|--------------------------|--------------------------|
E|--------------------------|--------------------------|

E|-----------0-----------0--|-----------0-----------0--|
B|--------0-----0-----------|--------0-----0-----------|
G|-----0-----------0--------|-----0-----------0--------|
D|--9-----------------9-----|--9-----------------9-----|
A|--------------------------|--------------------------|
E|--------------------------|--------------------------|
 
E|-----------0-----------0--|-----------0-----------0--|
B|--------0-----0-----------|--------0-----0-----------|
G|-----8-----------8--------|-----8-----------8--------|
D|--9-----------------9-----|--9-----------------9-----|
A|--------------------------|--------------------------|
E|--------------------------|--------------------------|

E|-------------0-------------0--|-------------0-------------0--|
B|----------0-----0-------------|----------0-----0-------------|
G|------11-----------11---------|------11-----------11---------|
D|--12-------------------12-----|--12-------------------12-----|
A|------------------------------|------------------------------|
E|------------------------------|------------------------------|

E|-------------0-------------0--|-------------0-------------0--|
B|----------0-----0-------------|----------0-----0-------------|
G|------12-----------12---------|------12-----------12---------|
D|--11-------------------11-----|--11-------------------11-----|
A|------------------------------|------------------------------|
E|------------------------------|------------------------------|

E|------------0------------0--|-----------0-----------0--|
B|---------0-----0------------|--------0-----0-----------|
G|------9-----------9---------|-----9-----------9--------|
D|--10-----------------10-----|--8-----------------8-----|
A|----------------------------|--------------------------|
E|----------------------------|--------------------------|

E|-----------0-----------0--|-----------0-----------0--|
B|--------0-----0-----------|--------0-----0-----------|
G|-----8-----------8--------|-----8-----------8--------|
D|--9-----------------9-----|--9-----------------9-----|
A|--------------------------|--------------------------|
E|--------------------------|--------------------------|

   Emi                          H           H7
1. Jde déšť a já jdu s ním, jdu městem, jež znám 
   Emi                  H         H7
   a hledám stopy včerejší, včerejší, 
   D                             A7 
   jdu stejným směrem jak dřív a vzpomínám 
   C                       H 
   a všechno zdá se krásnejší. 
 
2. Ach, lásko, voníš deštem, tady jsi řek', 
   myslím, že vítr tehdy vál, vítr vál, 
   jsou to už stovky let, kabát jsi svlék' 
   a byl mi velký, ale hřál, krásná lásko. 
 
3. Jak dlouho dlouho ještě půjdu ti vstříc, 
   člověk je velmi krátce živ, krátce živ, 
   má lásko voníš deštěm, jsi z plískanic, 
   však hřeješ stejně jako dřív. 
 
4. I déšť jak dřív je stejný i já, já jsem táž,
   jen cosi skříplo v orlojích, v orlojích, 
   byl's tu a stále jsi, jenom se ukrýváš, 
   jdu deštěm ve tvých šlépějích, ó má lásko. 

http://www.marierottrova.cz/
Suggest correction
Give kudos to tab author, rate the tab!
1 2 3 4 5
comments
print report bad tab
guest
You may want to rate the tab now too:
select rating
Wanna post a correction for this tab? Suggest correction