Oops, an error
Loading. Please wait.

Vivo Para Amarte Tab

33 views 1 this week
no commentswrite comment
1 2 3 4 5
3 more votes to show rating
add to favorites
launch autoscroll
font size
0
reset
how to read this tab
guitar tuner
×
Best way to learn
"Vivo Para Amarte"
Autoscroll
slow
fast
+/-
esc
set tempo
stop
Hola k tal komo les va??? spro y muy bn
bno aca les djo la intro d sta fabulosa kncion
Vivo para amart d Mariel Trimaglio, composicion d JR
chekenla y cualkier duda pues scriban hahahahaha
sta rola c la kiero ddikr a muchas personas...
a Nana, Karla, Eli grax muchachonas x tooodoooooo!!! jaja
las kiero harrtooooo!!! hahaha
y pues obvio mencion spcial, para Cindy =D jojo
saludos dsd Toluca, hasta pronto!!!

E||------3-3-5-7-----------|------3-3--5/7--|--7-5------------
B||------------------------|----------------|------8-7-5------
G||--3/4----------5/7-5-3--|--3/4-----------|------------7----
D||------------------------|----------------|-----------------
A||------------------------|----------------|-----------------
E||------------------------|----------------|-----------------


E||----------10/12-10--------|------7-8-7----------------|--------------|
B||----5-7-8----------12-----|----8--------10-8-10/12-10-|--5---5-------|
G||--7-------------------12--|--7------------------------|----7---7--5--|
D||--------------------------|---------------------------|--------------|
A||--------------------------|---------------------------|--------------|
E||--------------------------|---------------------------|--------------|
Suggest correction
Give kudos to tab author, rate the tab!
1 2 3 4 5
comments
print report bad tab
guest
You may want to rate the tab now too:
select rating
Wanna post a correction for this tab? Suggest correction