Oops, an error
Loading. Please wait.

Are You Afraid Of God No But Im Afraid Of You Bass Tab

55 views 9 this week
no commentswrite comment
1 2 3 4 5
1 last vote to show rating
add to favorites
launch autoscroll
font size
0
reset
guitar tuner
Autoscroll
slow
fast
+/-
esc
set tempo
stop
Help us to improve Ultimate-Guitar.com Take our survey!
×
Author
Difficulty
novice
About this tab version
I think this is the first time anyone has tabbed this song, and this is my first tab so hopefully it's correct. Was this info helpful? Yes No
[Intro] (Repeats a lot) you can slide from 2 to 5 to make it sound more like the actual song

G|-----------------------------------------------------------------|
D|-----------------------------------------------------------------|
A|---------0-----2--5---------0----2--5----------------------------|
E|-3-------------------3-----------------3-------------------------|

G|-----------------------------------------------------------------|
D|-----------------------------------------------------------------|
A|----0-----2--5----------0---2--5---------------------------------|
E|----------------3-----------------3------------------------------|

"You wrote me off" until "When I could sleep"

G|---------------------------------------------------------------------------|
D|---------------------------------------------------------------------------|
A|---5-5-5-5-----------5-5-5-5-----------5-5-5-5----------5-5-5-5------------|
E|-------------3-----------------3-----------------3----------------3--------|

G|---------------------------------------------------------------------------|
D|---------------------------------------------------------------------------|
A|---------------------------------------------------------------------------|
E|---------------------------------------------------------------------------|

Right before "I know my brother is"
The bass plays whole notes while the guitar plays rythm

G|---------------------------------------------------------------------------|
D|---------------------------------------------------------------------------|
A|-----------------------------5---------0-----------------------------------|
E|---------3---------3-------------------------------------------------------|

G|---------------------------------------------------------------------------|
D|---------------------------------------------------------------------------|
A|-----------------------------5----------0----------------------------------|
E|---------3----------3------------------------------------------------------|

starts right after "Give me another bottle" (Repeats)

G|-----------------------------------------------------------------------------------------|
D|-----------------------------------------------------------------------------------------|
A|---5-5-5-5---0-0-0-0-----------------------------5-5-5-5--0-0-0-0------------------------|
E|------------------------3-3-3----3--5--5-5--7-----------------------3-3-3--3--5--5-5--7--|

During instrumental breakdown

G|---------------------------------------------------------------------------|
D|---------------------------------------------------------------------------|
A|---------------------------------------------------------------------------|
E|----3-------3-------3------3-----------------------------------------------|

"Lighting my lighter in my pocket" Until end

G|-----------------------------------------------------------------|
D|-----------------------------------------------------------------|
A|---------0-----2--5---------0----2--5----------------------------|
E|-3-------------------3-----------------3-------------------------|

G|-----------------------------------------------------------------|
D|-----------------------------------------------------------------|
A|----0-----2--5----------0---2--5---------------------------------|
E|----------------3-----------------3------------------------------|




This was my first tab so let me know how I did, I hope this helps and Let me know if i messed up anywhere

************************************

| x   Dead note
| g   Grace note
| (n) Ghost note
| h   Hammer-on
| p   Pull-off
| r   Release
| >   Accented note
| t   Tapping
| b   Bend
| br  Bend release
| pb  Pre-bend
| pbr Pre-bend release
| /   Slide up
| \   Slide down
| ~   Vibrato
| s   Slap
| P   Pop
| PM  Palm mute
| TR  Trill
| N   Tremolo

************************************
Suggest correction
Give kudos to tab author, rate the tab!
1 2 3 4 5
comments
print report bad tab
guest
You may want to rate the tab now too:
select rating
Wanna post a correction for this tab? Suggest correction