Oops, an error
Loading. Please wait.

Youve Got The Map Backwards Matt Acoustic tab

version 1
version 1

Whole song

901 views 15 this week
2 commentsread comments
1 2 3 4 5
x 3
add to favorites
×
Save as Personal and add changes to this tab that will be seen only by you. Learn more ›
×
You can save this tab as Personal to edit and correct it or add notes. All changes will be seen only by you. Learn more »
launch autoscroll
font size
0
reset
how to read this tab
guitar tuner
edit
Autoscroll
slow
fast
+/-
esc
set tempo
stop
Marietta
You've Got The Map Backwards, Matt (Acoustic)

https://whereismarietta.bandcamp.com/track/youve-got-the-map-backwards-matt-acoustic
https://vimeo.com/45941340

Tab is based off of the vimeo link, they play it a half step up there so I've changed
the tuning to be correct with the acoustic version from their Bandcamp.

Tuning: C# F# C# F G# C#


[Verse]

C#|--------------------------------------------------|
G#|--------------------------------------------------|
F |--------8-----------8-----------8-----------8-----|
C#|-----0-----0-----0-----0-----0-----0-----0-----0--|
F#|--------------------------------------------------|
C#|--9-----------7-----------5-----------5-----------|


[Chorus type thing]

C#|-----------4-----------4-----------4-----------4--|
G#|--------5-----------5-----------5-----------5-----|
F |--------------------------------------------------|
C#|-----0-----------0-----------0-----------0--------|
F#|--------------------------------------------------|
C#|--0-----------0-----------5-----------5-----------|

**The same thing as above, use whatever feels most comfortable**

C#|--------------------------------------------------|
G#|-----------9-----------9-----------9-----------9--|
F |--------8-----------8-----------8-----------8-----|
C#|-----0-----------0-----------0-----------0--------|
F#|--------------------------0-----------0-----------|
C#|--0-----------0-----------------------------------|

            
            
Suggest correction
Creating personal tab
Creating personal tab
You can edit any tab online and save it as your Personal.

You can edit, replace or remove any tab part or add personal notes – all changes will be seen only by you.

Personal tabs can be accessed anytime from any device, even offline.
Learn more »
Give kudos to tab author, rate the tab!
1 2 3 4 5
comments
print report bad tab
2 comments total.
-1 reply
charlesbeland 10 Oct 02, 2016 04:14 PM

I hate you, this tab is garbage kill yourself

guest
You may want to rate the tab now too:
select rating
Wanna post a correction for this tab? Suggest correction