Oops, an error
Loading. Please wait.

If I Can Love You chords

140 views 3 this week
no commentswrite comment
1 2 3 4 5
2 more votes to show rating
add to favorites
×
Save as Personal and add changes to this tab that will be seen only by you. Learn more ›
×
You can save this tab as Personal to edit and correct it or add notes. All changes will be seen only by you. Learn more »
launch autoscroll
font size
0
reset
transpose
0
reset
simplify chords
display chords
guitar tuner
edit
Autoscroll
slow
fast
+/-
esc
set tempo
stop
Strumming Is this strumming pattern correct? Yes No
Non-picking (recommended) 78 bpm
1
 
&
 
2
 
&
 
3
 
&
 
4
 
&
 
Listen
Capo 5

Tab (relative to capo)
e|-----------------|-----------------|-----------------|-----------------|
B|-------0---------|-------0---------|-------0---------|-------0---------|
G|-----------0-----|-----------0-----|-----------0-----|-------0---0-----|
D|---------------2-|---------------0-|---------------0-|---------------0-|
A|-----------------|-----------------|-----------------|-----------------|
E|-0---0---0---0---|-0---0---0---0---|-3---3---3---3---|-3---3---3---3---|
   1 + 2 + 3 + 4 +   1 + 2 + 3 + 4 +   1 + 2 + 3 + 4 +   1 + 2 + 3 + 4 +
   Em                                  G

e|-----------------|-----------------|-----------------|-----------------|
B|-------3---------|-------3---------|-------1---------|-------1---------|
G|-----------0-----|-----------0-----|-----------0-----|-----------0-----|
D|---------------4-|---------------0-|---------------2-|---------------2-|
A|-5---5---5---5---|-5---5---5---5---|-3---3---3---3---|-3---3---3---0---|
E|-----------------|-----------------|-----------------|-----------------|
   1 + 2 + 3 + 4 +   1 + 2 + 3 + 4 +   1 + 2 + 3 + 4 +   1 + 2 + 3 + 4 +
   D *                                 C                             Am

Verse 2 Tab
e|-----------------|-----------------|-----------------|-----------------|
B|-------0---------|-------0---------|-------0---------|-------0---------|
G|-----------0-----|---------0-------|-----------0-----|-------0---0-----|
D|---------------2-|---------------0-|---------------0-|---------------0-|
A|-----------------|-----------------|-----------------|-----------------|
E|-0---0---0---0---|-0---0---0---0---|-3---3---3---3---|-3---3---3---3---|
   1 + 2 + 3 + 4 +   1 + 2 + 3 + 4 +   1 + 2 + 3 + 4 +   1 + 2 + 3 + 4 +
   Em                                  G

e|-----------------|-----------------|-----------------|-----------------|
B|-------3---------|-------3---------|-------3---------|-------1---------|
G|-----------0-----|-----------0-----|-----------0-----|-----------0-----|
D|---------------4-|---------------0-|---------------2-|---------------2-|
A|-5---5---5---5---|-5---5---5---5---|-3---3---3---3---|-3---3---3---0---|
E|-----------------|-----------------|-----------------|-----------------|
   1 + 2 + 3 + 4 +   1 + 2 + 3 + 4 +   1 + 2 + 3 + 4 +   1 + 2 + 3 + 4 +
   D *                                 Cadd9             C           Am

D * = Dadd4


ORDER: V1 PC C V2 PC C B FC1 FC2 O


[VERSE 1]
       Em                              G
It's a Saturday night, and we're sleep - in'
       D *                             C   Am
in the bedroom on your apartment floor
       Em                                G
And we finally know the movies and the T - V
    D *                            C
the sweetest night I've ever known


[PRE-CHORUS]
    Am      Em                                  G
And there's something I've been missing now for far too long,
D *           C
far too long, far too long
  Am    Em                           G
I don't need to ask permission or to come out too strong
       D *                  C
when I already know, when I already know


[CHORUS]
         Am   Em
If I can love you, you, you, you, you,
              G
If I can love you, you, you, you, you,
              D *
If I can love you, you, you, you, you,
       C
Yeah I already know
         Am   Em
If I can love you, you, you, you, you,
              G
If I can love you, you, you, you, you,
              D *
If I can love you, you, you, you, you,
       C
Yeah I already know


[VERSE 2]
Am         Em                           G
You're the one who can finish every sen - tence
           D *                              Cadd9 C
You're the only one I love that didn't hurt
Am    Em                                 G
And I used to count the days till we end - ed
        D *                                 Cadd9 C
Now I'm sleeping every night in your shirt


[PRE-CHORUS]
    Am      Em                                  G
And there's something I've been missing now for far too long,
D *           C
far too long, far too long
  Am    Em                           G
I don't need to ask permission or to come out too strong
       D *                  C       n.c.
when I already know, when I already know


[CHORUS]
         Am   Em
If I can love you, you, you, you, you,
              G
If I can love you, you, you, you, you,
              D *
If I can love you, you, you, you, you,
       C
Yeah I already know
         Am   Em
If I can love you, you, you, you, you,
              G
If I can love you, you, you, you, you,
              D *
If I can love you, you, you, you, you,
       C
Yeah I already know


[BRIDGE]
             C     D
If I can love you,
             Em    D
If I can love  you,
             C     D
If I can love you,
             Em    D
If I can love  you,


[FINAL CHORUS 1]
         Am   Em
If I can love you, you, you, you, you,
              G6
If I can love you, you, you, you, you,
              D *
If I can love you, you, you, you, you, 
n.c.


[FINAL CHORUS 2]
              Em
If I can love you, you, you, you, you,
              G
If I can love you, you, you, you, you,
              D *
If I can love you, you, you, you, you,
       C
Yeah I already know
         Am   Em
If I can love you, you, you, you, you,
              G
If I can love you, you, you, you, you,
              D *
If I can love you, you, you, you, you,
       C
Yeah I already know

If I can love you


[OUTRO] (choir only)
Em | D | D | D

            
            
Suggest correction
Creating personal tab
Creating personal tab
You can edit any tab online and save it as your Personal.

You can edit, replace or remove any tab part or add personal notes – all changes will be seen only by you.

Personal tabs can be accessed anytime from any device, even offline.
Learn more »
Give kudos to tab author, rate the tab!
1 2 3 4 5
comments
print report bad tab
guest
You may want to rate the tab now too:
select rating
Wanna post a correction for this tab? Suggest correction