Oops, an error
Loading. Please wait.

Majesty tab

43 views 3 this week
no commentswrite comment
1 2 3 4 5
3 more votes to show rating
add to favorites
×
Save as Personal and add changes to this tab that will be seen only by you. Learn more ›
×
You can save this tab as Personal to edit and correct it or add notes. All changes will be seen only by you. Learn more »
launch autoscroll
font size
0
reset
how to read this tab
guitar tuner
edit
Autoscroll
slow
fast
+/-
esc
set tempo
stop
Tab is based off the studio recording (https://www.youtube.com/watch?v=JWKKTCOSKtM)

[Intro]
e|---------------------------------------------------------------------------|
B|---------------------------------------------------------------------------|
G|---------------------------------------------------------------------------|
D|---------9-10-----9-10------9-10-----10-9----------------------------------| x2
A|----7-7--------7-7-------7-7-------7-7-------------------------------------|
E|---------------------------------------------------------------------------|

[Verse]
     oh, let's go insane....
e|---------------------------------------------------------------------------|
B|---------------------------------------------------------------------------|
G|---------------------------------------------------------------------------|
D|---------9-10-----10-9------9-10------10-9---------------------------------|
A|---7-7--------7-7-------7-7-------7-7--------------------------------------|
E|---------------------------------------------------------------------------|

e|---------------------------------------------------------------------------|
B|---------------------------------------------------------------------------|
G|--------------------------------------------0-----0---------0-----0--------|
D|-------7-9-----9-7-----7-9-----9-7--------2---------2-----2---------2------|
A|---5-5-----5-5-----5-5-----5-5--------0-0-----0-0-----0-0-----0-0----------|
E|---------------------------------------------------------------------------|

e|---------------------------------------------------------------------------|
B|---------------------------------------------------------------------------|
G|---------------------------------------------------------------------------|
D|---------------------------------------------------------------------------|
A|-------5-------5-------5-----9-9-------------------------------------------|
E|---3-3---3-3-3---3-3-3---3/7-----------------------------------------------|
     
     hey, no good for lay...
e|---------------------------------------------------------------------------|
B|---------------------------------------------------------------------------|
G|---------------------------------------------------------------------------|
D|---------9-10-----10-9------9-10------10-9---------------------------------|
A|---7-7--------7-7-------7-7-------7-7--------------------------------------|
E|---------------------------------------------------------------------------|

e|---------------------------------------------------------------------------|
B|---------------------------------------------------------------------------|
G|--------------------------------------------0-----0---------0-----0--------|
D|-------7-9-----9-7-----7-9-----9-7--------2---------2-----2---------2------|
A|---5-5-----5-5-----5-5-----5-5--------0-0-----0-0-----0-0-----0-0----------|
E|---------------------------------------------------------------------------|

[Guitar 1]
e|---------------------------------------------------------------------------|
B|---------------------------------------------------------------------------|
G|---------------------------------------------------------------------------|
D|---------------------------------------------------------------------------|
A|-------5-----9-7-----------------------5-----9-7---------------------------|
E|---3-3---3/7------0-0-7-7-7--5-5----3-3---3/7------------------------------|

[Guitar 2]
e|---------------------------------------------------------------------------|
B|---------------------------------------------------------------------------|
G|---12-11-9-------------------------12-11-9---------------------------------|
D|-----------12/13----------------------------12/14--------------------------| x2
A|---------------------------------------------------------------------------|
E|---------------------------------------------------------------------------|

[Guitar 3]
e|---------------------------------------------------------------------------|
B|---12-10-8--------------------------12-10-8--------------------------------|
G|------------7/8------------------------------7/9---------------------------|
D|---------------------------------------------------------------------------| x2
A|---------------------------------------------------------------------------|
E|---------------------------------------------------------------------------|

[Chorus]
    Gravity
e|---------------------------------------------------------------------------|
B|---------------------------------------------------------------------------|
G|---------------------------------------------------------------------------|
D|-------9-11-----11-9------9-6------6/4-------------------------------------|
A|---7-7------7-7------7-7-------7-7-----------------------------------------|
E|---------------------------------------------------------------------------|
    Pieces falling hard for me...
e|---------------------------------------------------------------------------|
B|---------------------------------------------------------------------------|
G|---------------------------------------------------------------------------|
D|-------4-6-----6-4-----4-2-----2-------------------------------------------|
A|---4-4-----4-4-----4-4-----4-4---------------------------------------------|
E|---------------------------------------------------------------------------|
    And the cheeks are on the brack
e|---------------------------------------------------------------------------|
B|---------------------------------------------------------------------------|
G|---------------------------------------------------------------------------|
D|-------2-----2-------------------------------------------------------------|
A|-------------------7-----7------5-----9-7----------------------------------|
E|---3-3---3-3---5-5---5-5------3---3/7--------------------------------------|
    Worship me
e|---------------------------------------------------------------------------|
B|---------------------------------------------------------------------------|
G|---------------------------------------------------------------------------|
D|-------9-11-----11-9------9-6------6/4-------------------------------------|
A|---7-7------7-7------7-7-------7-7-----------------------------------------|
E|---------------------------------------------------------------------------|
   I will be your majesty
e|---------------------------------------------------------------------------|
B|---------------------------------------------------------------------------|
G|---------------------------------------------------------------------------|
D|-------4-6-----6-4-----4-2-----2-------------------------------------------|
A|---4-4-----4-4-----4-4-----4-4---------------------------------------------|
E|---------------------------------------------------------------------------|
   I’m a supreme, mad queen...
e|---------------------------------------------------------------------------|
B|---------------------------------------------------------------------------|
G|---------------------------------------------------------------------------|
D|-------2------2-------------------------------------2----------------------|
A|-------------------7-----7-----5-----5-----3-----3-------------------------|
E|---3-3---3-3---5-5---5-5---3-3---3-3---3-3---3-3----0----------------------|

[Intro Fill]
e|---------------------------------------------------------------------------|
B|---------------------------------------------------------------------------|
G|---------------------------------------------------------------------------|
D|--------9-10------9-10-------9-10------10-9--------------------------------| x2
A|---7-7--------7-7-------7-7-------7-7--------------------------------------|
E|---------------------------------------------------------------------------|

[Verse]
  oh, let's go insane....
e|---------------------------------------------------------------------------|
B|---------------------------------------------------------------------------|
G|---------------------------------------------------------------------------|
D|-------9-10------10-9------9-10------10-9----------------------------------|
A|---7-7-------7-7-------7-7-------7-7---------------------------------------|
E|---------------------------------------------------------------------------|

e|---------------------------------------------------------------------------|
B|---------------------------------------------------------------------------|
G|--------------------------------------------0-----0---------0-----0--------|
D|-------7-9-----9-7-----7-9-----9-7--------2---------2-----2---------2------|
A|---5-5-----5-5-----5-5-----5-5--------0-0-----0-0-----0-0-----0-0----------|
E|---------------------------------------------------------------------------|

e|---------------------------------------------------------------------------|
B|---------------------------------------------------------------------------|
G|---------------------------------------------------------------------------|
D|---------------------------------------------------------------------------|
A|-------5-------5-------5-----9-9-------------------------------------------|
E|---3-3---3-3-3---3-3-3---3/7-----------------------------------------------|
     
e|---------------------------------------------------------------------------|
B|---------------------------------------------------------------------------|
G|---------------------------------------------------------------------------|
D|--------9-10------10-9------9-10------10-9---------------------------------|
A|---7-7--------7-7-------7-7-------7-7--------------------------------------|
E|---------------------------------------------------------------------------|

e|---------------------------------------------------------------------------|
B|---------------------------------------------------------------------------|
G|--------------------------------------------0-----0---------0-----0--------|
D|-------7-9-----9-7-----7-9-----9-7--------2---------2-----2---------2------|
A|---5-5-----5-5-----5-5-----5-5--------0-0-----0-0-----0-0-----0-0----------|
E|---------------------------------------------------------------------------|
  You'll hang afloat...
e|---------------------------------------------------------------------------|
B|---------------------------------------------------------------------------|
G|---------------------------------------------------------------------------|
D|-------9-10------10-9------9-10------10-9----------------------------------|
A|---7-7--------7-7-------7-7-------7-7--------------------------------------|
E|---------------------------------------------------------------------------|

e|---------------------------------------------------------------------------|
B|---------------------------------------------------------------------------|
G|--------------------------------------------0-----0---------0-----0--------|
D|-------7-9-----9-7-----7-9-----9-7--------2---------2-----2---------2------|
A|---5-5-----5-5-----5-5-----5-5--------0-0-----0-0-----0-0-----0-0----------|
E|---------------------------------------------------------------------------|

[Outro]
 [Guitar 1]
e|---------------------------------------------------------------------------|
B|---------------------------------------------------------------------------|
G|---------------------------------------------------------------------------|
D|---------------------------------------------------------------------------| x8
A|-------5-----9-7-----------------------------------------------------------|
E|---3-3---3/7------0-0-7-7-7--5-5-------------------------------------------|

 [Guitar 2]

e|---------------------------------------------------------------------------|
B|---------------------------------------------------------------------------|
G|---12-11-9-------------------------12-11-9---------------------------------|
D|-----------12/13----------------------------12/14--------------------------| x8
A|---------------------------------------------------------------------------|
E|---------------------------------------------------------------------------|

 [Guitar 3]

e|---------------------------------------------------------------------------|
B|---12-10-8-------------------------12-10-8---------------------------------|
G|------------7/8------------------------------7/9---------------------------|
D|---------------------------------------------------------------------------| x8
A|---------------------------------------------------------------------------|
E|---------------------------------------------------------------------------|



************************************

| /  Slide up
 

************************************

            
            
Suggest correction
Creating personal tab
Creating personal tab
You can edit any tab online and save it as your Personal.

You can edit, replace or remove any tab part or add personal notes – all changes will be seen only by you.

Personal tabs can be accessed anytime from any device, even offline.
Learn more »
Give kudos to tab author, rate the tab!
1 2 3 4 5
comments
print report bad tab
guest
You may want to rate the tab now too:
select rating
Wanna post a correction for this tab? Suggest correction