Oops, an error
Loading. Please wait.

Rastro tab

187 views 6 this week
no commentswrite comment
1 2 3 4 5
3 more votes to show rating
add to favorites
×
Save as Personal and add changes to this tab that will be seen only by you. Learn more ›
×
You can save this tab as Personal to edit and correct it or add notes. All changes will be seen only by you. Learn more »
launch autoscroll
font size
0
reset
how to read this tab
guitar tuner
edit
Autoscroll
slow
fast
+/-
esc
set tempo
stop
About this tab version
This version got the tab for the 3 guitar on the song. Was this info helpful? Yes No
All guitar on Drop D tunning, even the bass
Guitar 1= Marilina Bertoldi

[Intro]
Guitar 1 & 2 & 3
e|------------------------------|
B|------------------------------|
G|-4-/-11--11-------------------|  x4
D|-x-/-x---x--------------------|
A|-4-/-11--11-------------------|
D|--------------0--6--0--3--0---|

[Chorus]
"Arderá tu rastro en mí"

[Guitar 3]
e|------------------------------------------------------------------|
B|------------------------------------------------------------------|
G|------------------------------------------------------------------|
D|------------------------------------------------------------------|
A|-2-2-2-2-2---5-5-5-5-5---9-9-9-9-9---7-7-7-7---x-x-12\--x-x-12\---|
D|------------------------------------------------------------------|

"Volveré en pedazos a ser felíz. "
Guitar 1, Marilina toca estos acordes con los 4 dedos de la mano, solo en esta parte de la cancion
e|------------------------------------------------------------------|
B|-3-----------7-----------9-----------9----------------------------|
G|-2-----------6-----------9-----------7----------------------------|
D|-4-----------7-----------7-----------9----------------------------|
A|-2-----------5-----------9-----------7----------------------------|
D|------------------------------------------------------------------|

[Guitar 3]
e|------------------------------------------------------------------|
B|------------------------------------------------------------------|
G|------------------------------------------------------------------|
D|------------------------------------------------------------------|
A|-2-2-2-2-2---5-5-5-5-5---9-9-9-9-9---7-7-7-7---x-x-12\--x-x-12\---|
D|------------------------------------------------------------------|

[Verse]
"Vuelven los descuidos insistentes de negar fragilidad"
Guitar 1, estan escritos una sola vez pero aca hay que rasguear siguiendo el ritmo
e|-2-----------5---------------------------7---------------------------------|
B|-3-----------7------------9--------------9---------------------------------|
G|-2-----------6------------9--------------7---------------------------------|
D|-4-----------7------------7--------------9---------------------------------|
A|-2-----------5------------9--------------7---------------------------------|
D|---------------------------------------------------------------------------|

[Guitar 3]
e|-----------------------------------------------------------------------|
B|-----------------------------------------------------------------------|
G|-----------------------------------------------------------------------|
D|-----------------------------------------------------------------------|
A|-2--2/5--2---5--5/9---5---9---9-/12--9---7--7/9--9--9--x-x-12--x-x-12--|
D|-----------------------------------------------------------------------|

[Guitar 2]
e|---------------------------------------------------------|
B|---------------------------------------------------------|
G|-4--4/7--4---7--7/11--7---11--11/14--11--9--9/11-11-11---|
D|-4--4/7--4---7--7/11--7---11--11/14--11--9--9/x--x--x----|
A|-2--2/5--2---5--5/9---5---9---9-/12--9---7--7/9--9--9----|
D|---------------------------------------------------------|

"Duele abrazas no se debe repetir para empezar"
Guitar 1, estan escritos una sola vez pero aca hay que rasguear siguiendo el ritmo
e|-2-----------5---------------------------7---------------------------------|
B|-3-----------7------------9--------------9---------------------------------|
G|-2-----------6------------9--------------7---------------------------------|
D|-4-----------7------------7--------------9---------------------------------|
A|-2-----------5------------9--------------7---------------------------------|
D|---------------------------------------------------------------------------|

[Guitar 3]
e|-----------------------------------------------------------------------|
B|-----------------------------------------------------------------------|
G|-----------------------------------------------------------------------|
D|-----------------------------------------------------------------------|
A|-2--2/5--2---5--5/9---5---9---9-/12--9---7--7/9--9--9--x-x-12--x-x-12--|
D|-----------------------------------------------------------------------|

[Guitar 2]
e|---------------------------------------------------------|
B|---------------------------------------------------------|
G|-4--4/7--4---7--7/11--7---11--11/14--11--9--9/11-11-11---|
D|-4--4/7--4---7--7/11--7---11--11/14--11--9--9/x--x--x----|
A|-2--2/5--2---5--5/9---5---9---9-/12--9---7--7/9--9--9----|
D|---------------------------------------------------------|

[Chorus]
"Arderá tu rastro en mí"
Guitar 1, estan escritos una sola vez pero aca hay que rasguear siguiendo el ritmo
e|------------------------------------------------------------------|
B|-3-----------7-----------9-----------9----------------------------|
G|-2-----------6-----------9-----------7----------------------------|
D|-4-----------7-----------7-----------9----------------------------|
A|-2-----------5-----------9-----------7----------------------------|
D|------------------------------------------------------------------|

Guitar 2, estan escritos una sola vez pero aca hay que rasguear siguiendo el ritmo
e|-2-----------2-----------2-----------0----------------------------|
B|-3-----------2-----------2-----------0----------------------------|
G|-4-----------2-----------2-----------1----------------------------|
D|-4-----------0-----------4-----------2----------------------------|
A|-2-----------------------4-----------2----------------------------|
D|-------------------------4-----------2----------------------------|

[Guitar 3]
e|------------------------------------------------------------------|
B|------------------------------------------------------------------|
G|------------------------------------------------------------------|
D|------------------------------------------------------------------|
A|-2-2-2-2-2---5-5-5-5-5---9-9-9-9-9---7-7-7-7---x-x-12\--x-x-12\---|
D|------------------------------------------------------------------|

"Volveré en pedazos a ser felíz. "
[Guitar 1], estan escritos una sola vez pero aca hay que rasguear siguiendo el ritmo
e|------------------------------------------------------------------|
B|-3-----------7-----------9-----------9----------------------------|
G|-2-----------6-----------9-----------7----------------------------|
D|-4-----------7-----------7-----------9----------------------------|
A|-2-----------5-----------9-----------7----------------------------|
D|------------------------------------------------------------------|

[Guitar 2], estan escritos una sola vez pero aca hay que rasguear siguiendo el ritmo
e|-2-----------2-----------2-----------0----------------------------|
B|-3-----------2-----------2-----------0----------------------------|
G|-4-----------2-----------2-----------1----------------------------|
D|-4-----------0-----------4-----------2----------------------------|
A|-2-----------------------4-----------2----------------------------|
D|-------------------------4-----------2----------------------------|

[Guitar 3]
e|------------------------------------------------------------------|
B|------------------------------------------------------------------|
G|------------------------------------------------------------------|
D|------------------------------------------------------------------|
A|-2-2-2-2-2---5-5-5-5-5---9-9-9-9-9---7-7-7-7---x-x-12\--x-x-12\---|
D|------------------------------------------------------------------|

[Interlude]
Guitar 1 & 2 & 3
e|------------------------------|
B|------------------------------|
G|-4-/-11--11-------------------|  x2
D|-x-/-x---x--------------------|
A|-4-/-11--11-------------------|
D|--------------0--6--0--3--0---|

[Verse]
"Rehacer asumidos en pendiente es amarnos en verdad"

[Guitar 2 & 3]
e|-9~----12~----9~-----7~----|
B|-7~----10~----10~----9~----|
G|-7~----11~----11~----7~----|
D|-9~-----------11~----9~----|
A|---------------------------|
D|---------------------------|

"Verte y sentír que nuestro puente nos unió al separar"
[Guitar 2 & 3]
e|-9~----12~----9~-----7~----|
B|-7~----10~----10~----9~----|
G|-7~----11~----11~----7~----|
D|-9~-----------11~----9~----|
A|---------------------------|
D|---------------------------|

[Chorus]
"Arderá tu rastro en mí"

[Guitar 1]estan escritos una sola vez pero aca hay que rasguear siguiendo el ritmo
e|------------------------------------------------------------------|
B|-3-----------7-----------9-----------9----------------------------|
G|-2-----------6-----------9-----------7----------------------------|
D|-4-----------7-----------7-----------9----------------------------|
A|-2-----------5-----------9-----------7----------------------------|
D|------------------------------------------------------------------|

[Guitar 2]estan escritos una sola vez pero aca hay que rasguear siguiendo el ritmo
e|-2-----------2-----------2-----------0----------------------------|
B|-3-----------2-----------2-----------0----------------------------|
G|-4-----------2-----------2-----------1----------------------------|
D|-4-----------0-----------4-----------2----------------------------|
A|-2-----------------------4-----------2----------------------------|
D|-------------------------4-----------2----------------------------|

[Guitar 3]
e|------------------------------------------------------------------|
B|------------------------------------------------------------------|
G|------------------------------------------------------------------|
D|------------------------------------------------------------------|
A|-2-2-2-2-2---5-5-5-5-5---9-9-9-9-9---7-7-7-7---x-x-12\--x-x-12\---|
D|------------------------------------------------------------------|

"Volveré en pedazos a ser felíz. "
[Guitar 1]estan escritos una sola vez pero aca hay que rasguear siguiendo el ritmo
e|------------------------------------------------------------------|
B|-3-----------7-----------9-----------9----------------------------|
G|-2-----------6-----------9-----------7----------------------------|
D|-4-----------7-----------7-----------9----------------------------|
A|-2-----------5-----------9-----------7----------------------------|
D|------------------------------------------------------------------|

[Guitar 2]estan escritos una sola vez pero aca hay que rasguear siguiendo el ritmo
e|-2-----------2-----------2-----------0----------------------------|
B|-3-----------2-----------2-----------0----------------------------|
G|-4-----------2-----------2-----------1----------------------------|
D|-4-----------0-----------4-----------2----------------------------|
A|-2-----------------------4-----------2----------------------------|
D|-------------------------4-----------2----------------------------|

[Guitar 3]
e|------------------------------------------------------------------|
B|------------------------------------------------------------------|
G|------------------------------------------------------------------|
D|------------------------------------------------------------------|
A|-2-2-2-2-2---5-5-5-5-5---9-9-9-9-9---7-7-7-7---x-x-12\--x-x-12\---|
D|------------------------------------------------------------------|

"En mí"
[Guitar 1] estan escritos una sola vez pero aca hay que rasguear siguiendo el ritmo
e|------------------------------------------------------------------|
B|-3-----------7-----------9-----------9----------------------------|
G|-2-----------6-----------9-----------7----------------------------|
D|-4-----------7-----------7-----------9----------------------------|
A|-2-----------5-----------9-----------7----------------------------|
D|------------------------------------------------------------------|

[Guitar 2]estan escritos una sola vez pero aca hay que rasguear siguiendo el ritmo
e|-2-----------2-----------2-----------0----------------------------|
B|-3-----------2-----------2-----------0----------------------------|
G|-4-----------2-----------2-----------1----------------------------|
D|-4-----------0-----------4-----------2----------------------------|
A|-2-----------------------4-----------2----------------------------|
D|-------------------------4-----------2----------------------------|

[Guitar 3]
e|------------------------------------------------------------------|
B|------------------------------------------------------------------|
G|------------------------------------------------------------------|
D|------------------------------------------------------------------|
A|-2-2-2-2-2---5-5-5-5-5---9-9-9-9-9---7-7-7-7---x-x-12\--x-x-12\---|
D|------------------------------------------------------------------|

"Volveré en pedazos a ser felíz. "
[Guitar 1] estan escritos una sola vez pero aca hay que rasguear siguiendo el ritmo
e|------------------------------------------------------------------|
B|-3-----------7-----------9-----------9----------------------------|
G|-2-----------6-----------9-----------7----------------------------|
D|-4-----------7-----------7-----------9----------------------------|
A|-2-----------5-----------9-----------7----------------------------|
D|------------------------------------------------------------------|

[Guitar 2]estan escritos una sola vez pero aca hay que rasguear siguiendo el ritmo
e|-2-----------2-----------2-----------0----------------------------|
B|-3-----------2-----------2-----------0----------------------------|
G|-4-----------2-----------2-----------1----------------------------|
D|-4-----------0-----------4-----------2----------------------------|
A|-2-----------------------4-----------2----------------------------|
D|-------------------------4-----------2----------------------------|

[Guitar 3]
e|------------------------------------------------------------------|
B|------------------------------------------------------------------|
G|------------------------------------------------------------------|
D|------------------------------------------------------------------|
A|-2-2-2-2-2---5-5-5-5-5---9-9-9-9-9---7-7-7-7---x-x-12\--x-x-12\---|
D|------------------------------------------------------------------|

[Outro]
Guitar 1 & 2 & 3
e|------------------------------|
B|------------------------------|
G|-4-/-11--11-------------------|(x4)
D|-x-/-x---x--------------------|
A|-4-/-11--11-------------------|
D|--------------0--6--0--3--0---|

************************************

| /  Slide up
| x  Dead note
| \  Slide down
| ~  Vibrato

************************************

            
            
Suggest correction
Creating personal tab
Creating personal tab
You can edit any tab online and save it as your Personal.

You can edit, replace or remove any tab part or add personal notes – all changes will be seen only by you.

Personal tabs can be accessed anytime from any device, even offline.
Learn more »
Give kudos to tab author, rate the tab!
1 2 3 4 5
comments
print report bad tab
guest
You may want to rate the tab now too:
select rating
Wanna post a correction for this tab? Suggest correction