Oops, an error
Loading. Please wait.

Fantastic Place Tab

version 1
version 1

Whole song

809 views 3 this week
no commentswrite comment
1 2 3 4 5
excellent!
x 4
add to favorites
launch autoscroll
font size
0
reset
how to read this tab
guitar tuner
Tab Pro tools
  • play this tab
  • loop segment
  • change instrument
  • show fretboard
  • metronome
×
Best way to learn
"Fantastic Place"
Autoscroll
slow
fast
+/-
esc
set tempo
stop
Contributor
Difficulty
intermediate
                                          Artist - Marillion
                                         ********************
                                        Song - Fantastic Place
                                       ************************
                                           Album - Marbles
                                          *****************
                                         Tabbed By - Ayreon77
                                        **********************


INTRO - Keyboards - Cm Bb F Gm X2 (2nd Time guitar comes in)
******

---------------------------------------------------
Lots of delay
[----13-|-------|---------------|
[-11----|-10----|------10-------|
[-------|----10-|--s--------s---|
[-------|-------|-8\10----10\12-|
[-------|-------|---------------|
[-------|-------|---------------|

---------------------------------------------------
VERSE 1
********                   [-------|
Eb Cm            Bb        [-------|
   It's always a struggle  [---s---|
                F          [-8-\10-|
To let somebody go         [-------|  
Eb Cm             Bb       [-------|     
   It's a natural desire
                   F       Bb   F
To own your lover, I know

[-------|
[-------|
[---s---|
[-10\12-|
[-------|
[-------|

---------------------------------------------------
VERSE 2                         [---s---17----17---------|  
********                        [-11\13----13---------10-|  
Eb         Cm              Bb   [-----------------s------|  
   And you can screw a man down [----------------8\10----|   
                  F             [------------------------|       
Until he takes to drinking      [------------------------|       
Eb            Cm             Bb 
   He'll give you all of his money
                               Gm        Cm
You still won't know what he's thinking

this is low
[---s--------10-8-|
[-8-\10--11-------|
[-----------------|
[-----------------|
[-----------------|
[-----------------|

Gm Cm    Gm Cm Bb F

---------------------------------------------------
CHORUS
*******                        [--s--------------|      
Cm             Bb              [-1\6-6-4-3----s--|  
Take me to the fantastic place [-----------5-3\5-|      
         Cm              F     [-----------------|   
Keep the rest of my life away  [-----------------|      
Cm             Bb              [-----------------|   
Take me to the fantastic place
         Cm              F
Keep the rest of my life away

---------------------------------------------------
PRE CHORUS
***********
C#             Eb
Take me to the island
               C#             Bb
I'll watch the rain over your shoulder
    C#                  Eb    
The streetlights in the water
           C#              Bb
The moment outside of real life

---------------------------------------------------
SOLO 1 - Cm Bb F X2
*******
[--------|----------|------------8-6-13-13-13-13-|-------s------|----------|
[-rb-b---|-6-6------|--------8-6-----------------|-11-11-\10----|---s--s---|
[-5----3-|------5-5-|-5-7-8----------------------|-----------10-|-10\12/10-|
[--------|----------|----------------------------|--------------|----------|
[--------|----------|----------------------------|--------------|----------|
[--------|----------|----------------------------|--------------|----------|


---------------------------------------------------
VERSE 3                                    [------------------------------|   
********                                   [11-10-------------------------|
Eb               Bb                F       [------10---h------------------|    
   I never could dream while I was sleeping[---------10-12-10---s---------|   
Eb                      Bb                 [------------------12\10-8-10-8|
   Put your arms around my soul            [------------------------------|    
         Gm          Cm
And take it dancing

Gm Cm Bb F

---------------------------------------------------
CHORUS
*******
---------------------------------------------------

VERSE 4
******** 
Cm             Gm
  Say you understand me
           F            Ab
And I will leave myself completely
   Am           Gm
Forgive me if I stare
          F         Ab     Eb               Bb     F    
But I can see the island behind your tired, in troubled eyes

---------------------------------------------------
SOLO 2 - (Eb Bb F X2)
*******  (Cm Gm Bb F - Cm Gm F X2)

Not 100% with this part, there is more notes to it? (i think) 
                                                      b  b  b  
[----------------------6-6-6-5-6-8-8--8-8-8--8-8-8--8-8--8--8-8-|
[---------------------------------------------------------------|
[-3-3-3-3-3-3-3-3-3-3-------------------------------------------|
[---------------------------------------------------------------|
[---------------------------------------------------------------|
[---------------------------------------------------------------|

                         s
[-5-6-8-6-|-5-6-8-----|-8\10-8----------|-------------13-|----------(10)-13|
[---------|-------8-6-|--------11-10-10-|-10-11-10-11----|-11-10-11--------|
[---------|-----------|-----------------|----------------|-----------------|
[---------|-----------|-----------------|----------------|-----------------|
[---------|-----------|-----------------|----------------|-----------------|
[---------|-----------|-----------------|----------------|-----------------|


[-----------------b--br-|-------------|----------|-------------|
[-10-11-13-13-11-13-13--|-------------|-10-------|-------------|
[-----------------------|----12-------|-------10-|-10----------|
[-----------------------|-13----13-12-|----12----|-------12-10-|
[-----------------------|-------------|----------|----13-------|
[-----------------------|-------------|----------|-------------|

                                            s
[------------------------------------------8\10-|
[------s-----s---13--10-10-10-10-10-10-10-------|
[-8--8-\10-10\12--------------------------------|
[-----------------------------------------------|
[-----------------------------------------------|
[-----------------------------------------------|


[----------------------18-17-------------|-18----17------------------------|
[----------------------------15-18-18----|----15----18----18---------------|
[-10-10-10-10-10-10-10----------------17-|-------------17----17-17-17-17-17|
[----------------------------------------|---------------------------------|
[----------------------------------------|---------------------------------|
[----------------------------------------|---------------------------------|

---------------------------------------------------
BRIDGE
*******
Gm                F
   Take me to the island
              Gm               Cm
I'll tell you all I never told you
    Gm          F
The boy I never showed you
            Gm          Cm
More than I gave in my life
Gm                F
   Take me by the hand
              Gm                Cm
You'll either kill me or you'll save me
Gm                F
   Take me to the island
             Gm            Cm
Show me what might be real life

---------------------------------------------------
SOLO 3
*******
[----------------|--------------|-------------------|
[---8--6-5-------|-8--6-5-------|-8--6-5------------|
[-5--------7-5---|--------7-5---|--------7-5-----br-|
[--------------8-|------------7-|------------6-8----|
[----------------|--------------|-------------------|
[----------------|--------------|-------------------|


[----------------|--------------|------------------------------|
[---8--6-5-------|-8--6-5-------|-8--6-5--------------------br-|
[-5--------7-5---|--------7-5---|--------7-5------s---8-10-10--|
[--------------8-|------------7-|------------6-8-8\10----------|
[----------------|--------------|------------------------------|
[----------------|--------------|------------------------------|


[----------------|--------------|---------------------------note ring out-|
[---8--6-5-------|-8--6-5-------|-8--6-5----------------------8-----------|
[-5--------7-5---|--------7-5---|--------7-5-----5-7--5-5-7-8-------------|
[--------------8-|------------7-|------------6-8--------------------------|
[----------------|--------------|-----------------------------------------|
[----------------|--------------|-----------------------------------------|


A Cool Marillion track. Enjoy................
comments
print report bad tab
I want to post or [tab]
guest
You may want to rate the tab now too:
select rating
Please do not post tabs as comments. Select "correction" instead!