Oops, an error
Loading. Please wait.

No One Can bass

version 1
version 1

Whole song

Interactive

863 views 3 this week
no commentswrite comment
1 2 3 4 5
3 more votes to show rating
add to favorites
×
Save as Personal and add changes to this tab that will be seen only by you. Learn more ›
×
You can save this tab as Personal to edit and correct it or add notes. All changes will be seen only by you. Learn more »
launch autoscroll
font size
0
reset
guitar tuner
edit
Autoscroll
slow
fast
+/-
esc
set tempo
stop
Author
Difficulty
---------------------------------------------------------------------------
                             No One Can - Marillion
---------------------------------------------------------------------------
Tabbed by: Simon Jackson 
E-mail: 

Tuning: Standard

Intro
G|------------------------------------------------------------------------|
D|------------------------------------------------------------------------|
A|--------------------22222222--00000000----------------------------------|
E|-00000000--44444444----------0------------------------------------------|

G|------------------------------------------------------------------------|
D|------------------------------------------------------------------------|
A|--------------------22222222--00000004----------------------------------|
E|-00000000--44444444-----------------------------------------------------|

Verse
G|------------------------------------------------------------------------|
D|------------------------------------------------------------------------|
A|--------------------22222222--00000002----------------------------------|
E|-00000000--44444444-----------------------------------------------------|

G|------------------------------------------------------------------------|
D|------------------------------------------------------------------------|
A|------------------------------22222---2---------------------------------|
E|-00000000--44444444--22222222-------4---4-------------------------------|

G|------------------------------------------------------------------------|
D|------------------------------------------------------------------4-----|
A|--77777777--66666666--44444442----------00000000----------------4---4---|
E|-------------------------------44444444----------44444444—22222---------|

G|------------------------------------------------------------------------|
D|-----------2--4---------------------------------------4-----------------|
A|--22222--4--------------24444444--2222220-----------4---4---------------|
E|----------------2222222-------------------4--222222---------------------|

G|------------------------------------------------------------------------|
D|---------------------------------------4--------------------------------|
A|----------24444444--2222222----------4---4------------------------------|
E|--2222222--------------------4-22222------------------------------------|

G|------------------------------------------------------------------------|
D|------------------------------------------------------------------------|
A|----------244444444--22222222--00000000--------------------2--4---------|
E|--2222222-------------------------------44444444--22222--4--------------|

Chorus
G|------------------------------------------------------------------------|
D|------------------------------------------------------------------------|
A|--------------------22222222--00000---0--2------------------------------|
E|-00000000--44444440-----------------0-----------------------------------|

G|------------------------------------------------------------------------|
D|------------------------------------------------------------------------|
A|--------------------22222222--00000--0--2--0----------------------------|
E|-00000000--44444440-----------------------------------------------------|







G|------------------------------------------------------------------------|
D|------------------------------------------------------------------------|
A|--------------------22222222--00000---0--2------------------------------|
E|-00000000--44444440-----------------0-----------------------------------|

G|------------------------------------------------------------------------|
D|------------------------------------------------------------------------|
A|--------------------22222222--00000--0--2--0----------------------------|
E|-00000000--44444440-----------------------------------------------------|

Verse
G|------------------------------------------------------------------------|
D|------------------------------------------------------------------4-----|
A|--77777777--66666666--44444442----------00000000----------------4---4---|
E|-------------------------------44444444----------44444444—22222---------|


G|------------------------------------------------------------------------|
D|------------------------------------------------------------------------|
A|--22222----2--4---------------------------------------------------------|
E|--------4---------------------------------------------------------------|


G|------------------------------------------------------------------------|
D|------------------------------------------------------------------4-----|
A|--77777777--66666666--44444442----------00000000----------------4---4---|
E|-------------------------------44444444----------44444444—22222---------|


G|------------------------------------------------------------------------|
D|------------------------------------------------------------------------|
A|--22222----2--4---------------------------------------------------------|
E|--------4---------------------------------------------------------------|


Chorus
G|------------------------------------------------------------------------|
D|------------------------------------------------------------------------|
A|--------------------22222222--00000---0--2------------------------------|
E|-00000000--44444440-----------------0-----------------------------------|

G|------------------------------------------------------------------------|
D|------------------------------------------------14----------------------|
A|--------------------22222222/—14-14-14-14-14-14----12--14---------------|
E|-00000000--44444440-----------------------------------------------------|



G|------------------------------------------------------------------------|
D|------------------------------------------------------------------------|
A|--------------------22222222--00000---0--2------------------------------|
E|-00000000--44444440-----------------0-----------------------------------|


G|------------------------------------------------------------------------|
D|------------------------------------------------------------------------|
A|--------------------22222222--00000--0-2-0------------------------------|
E|-00000000--44444440-----------------------------------------------------|


Guitar Solo
G|------------------------------------------------------------------------|
D|------------------------------------------------------------------------|
A|--3333333-5-------------------------------------------------------------|
E|------------00000002--33333333--11111-0-1-0-----------------------------|


G|------------------------------------------------------------------------|
D|------------------------------------------------------------------------|
A|--3333333-5-------------------------------------------------------------|
E|------------00000002--33333333—11111111---------------------------------|

Bridge
G|------------------------------------------------------------------------|
D|--------------------------------------4---------------------------------|
A|-----------44444444--22222220-------4---4-------------------------------|
E|--22222222--------------------42222-------------------------------------|

G|------------------------------------------------------------------------|
D|------------------------------------------------------------------------|
A|----------244444444--22222222--00000000---------------------------------|
E|--2222222-------------------------------44444444—22222222---------------|

Chorus
G|------------------------------------------------------------------------|
D|------------------------------------------------------------------------|
A|--------------------22222222--00000---0--2------------------------------|
E|-00000000--44444440-----------------0-----------------------------------|


G|---------------------------------------------2---4----------------------|
D|---------------------------------------2---4-------2---4----------------|
A|---------------------22222222---2---4-----------------------------------|
E|--00000000--44444444----------------------------------------------------|

G|------------------------------------------------------------------------|
D|------------------------------------------------------------------------|
A|--------------------22222222--00000--0-2-0------------------------------|
E|-00000000--44444440-----------------------------------------------------|


G|------------------------------------------------------------------------|
D|------------------------------------------------14----------------------|
A|--------------------22222222/—14-14-14-14-14-14----12--14---------------|
E|-00000000--44444440-----------------------------------------------------|

G|------------------------------------------------------------------------|
D|------------------------------------------------------------------------|
A|--------------------22222222--00000---0--2------------------------------|
E|-00000000--44444440-----------------0-----------------------------------|


G|------------------------------------------------------------------------|
D|------------------------------------------------------------------------|
A|--------------------22222222--00000---0--2------------------------------|
E|-00000000--44444440-----------------0-----------------------------------|

 Fade Out




| /  slide up
| \  slide down
| h  hammer-on
| p  pull-off
| ~  vibrato
| +  harmonic
| x  Mute note
===============================================================================
Suggest correction
Creating personal tab
Creating personal tab
You can edit any tab online and save it as your Personal.

You can edit, replace or remove any tab part or add personal notes – all changes will be seen only by you.

Personal tabs can be accessed anytime from any device, even offline.
Learn more »
Give kudos to tab author, rate the tab!
1 2 3 4 5
comments
print report bad tab
guest
You may want to rate the tab now too:
select rating
Wanna post a correction for this tab? Suggest correction