Oops, an error
Loading. Please wait.

15 Tab

version 1
version 1

Whole song

Interactive

8,150 views 3 this week
1 commentread comment
1 2 3 4 5
excellent!
x 5
add to favorites
launch autoscroll
font size
0
reset
how to read this tab
guitar tuner
Autoscroll
slow
fast
+/-
esc
set tempo
stop
Help us to improve Ultimate-Guitar.com Take our survey!
×
Author
Artiste: Marilyn Manson
Album: The High End Of Low
Song: 15
Tabbed by: SlipKoRn666_Godin@hotmail.com

Guitar 1: E B G D A E

Guitar 2: E B G D A E

Bass: G D A Db

DO YOU GONNA UPDATE MY FUC*** TAB !!!!!!!!!!
_____________________________________________________________________________


Guitar 1  (0:00)
E-------1-----------1-----------1-------1-----------1-----------1---|
B-----------1-----------1-------------------1-----------1-----------|
G-------------------------------------------------------------------|
D---3-----------3-----------3-------2-----------2-----------2-------|
A-------------------------------------------------------------------|
E-------------------------------------------------------------------|

                                                                        x7

E-------1-----------1-----------1-------1-----------1-----------1---|
B-----------1-----------1-------------------1-----------1-----------|
G-------------------------------------------------------------------|
D---0-----------0-----------0---------------------------------------|
A-----------------------------------4-----------4-----------4-------|
E-------------------------------------------------------------------|


Guitar 2  (0:18)
E-------------------------------------------------------------------|
B---18----18--------------------------------------------------------|
G---------------20---20---20---17-----17---17---17---20-----20---20-|
D-------------------------------------------------------------------|
A-------------------------------------------------------------------|
E-------------------------------------------------------------------|

                                                                         x5

E-------------------------------------------------------------------|
B-------------------------------------------------------------------|
G---15-----15-----15---15---15---14-----14---14---14---14---14---14-|
D-------------------------------------------------------------------|
A-------------------------------------------------------------------|
E-------------------------------------------------------------------|

_____________________________________________________________________________


Guitar 1  (1:03)
E---------------3-----------------3-------------------3--------------|
B---------1-----------------1-------------------1--------------------|
G--------------------------------------------------------------------|   x6
D---3-----------------3-------------------3--------------------------|
A--------------------------------------------------------------------|
E--------------------------------------------------------------------|


Bass      (1:03)
G-------------------------------------------------------------------|
D-------------------------------------------------------------------|
A-------------------------------------------------------------------|
Db---4-------------------------------------3------------------------|

                                                                          x3

G-------------------------------------------------------------------|
D-------------------------------------------------------------------|
A-------------------------------------------------------------------|
Db---1-------------------------------------0------------------------|

_____________________________________________________________________________


Guitar 1    (1:30)
E-------1-----------1-----------1-------1-----------1-----------1---|
B-----------1-----------1-------------------1-----------1-----------|
G-------------------------------------------------------------------|
D---3-----------3-----------3-------2-----------2-----------2-------|
A-------------------------------------------------------------------|
E-------------------------------------------------------------------|

                                                                        x2

E-------1-----------1-----------1-------1-----------1-----------1---|
B-----------1-----------1-------------------1-----------1-----------|
G-------------------------------------------------------------------|
D---0-----------0-----------0---------------------------------------|
A-----------------------------------4-----------4-----------4-------|
E-------------------------------------------------------------------|

Bass         (1:30)
G-------------------------------------------------------------------|
D-------------------------------------------------------------------|
A-------------------------------------------------------------------|
Db---8------------------------------7-------------------------------|

                                                                         x2

G-------------------------------------------------------------------|
D-------------------------------------------------------------------|
A-------------------------------------------------------------------|
Db---5------------------------------4-------------------------------|

_____________________________________________________________________________


Guitar 2  (1:48)
E-------------------------------------------------------------------|
B---18----18--------------------------------------------------------|
G---------------20---20---20---17-----17---17---17---20-----20---20-|
D-------------------------------------------------------------------|
A-------------------------------------------------------------------|
E-------------------------------------------------------------------|

                                                                         x3

E-------------------------------------------------------------------|
B-------------------------------------------------------------------|
G---15-----15-----15---15---15---14-----14---14---14---14---14---14-|
D-------------------------------------------------------------------|
A-------------------------------------------------------------------|
E-------------------------------------------------------------------|


Guitar 1  (1:58)
E-------1-----------1-----------1-------1-----------1-----------1---|
B-----------1-----------1-------------------1-----------1-----------|
G-------------------------------------------------------------------|
D---3-----------3-----------3-------2-----------2-----------2-------|
A-------------------------------------------------------------------|
E-------------------------------------------------------------------|

                                                                        x2

E-------1-----------1-----------1-------1-----------1-----------1---|
B-----------1-----------1-------------------1-----------1-----------|
G-------------------------------------------------------------------|
D---0-----------0-----------0---------------------------------------|
A-----------------------------------4-----------4-----------4-------|
E-------------------------------------------------------------------|

_____________________________________________________________________________


Guitar 1  (2:16)
E---------------3-----------------3-------------------3--------------|
B---------1-----------------1-------------------1--------------------|
G--------------------------------------------------------------------|   x6
D---3-----------------3-------------------3--------------------------|
A--------------------------------------------------------------------|
E--------------------------------------------------------------------|


Bass       (2:25)
G-------------------------------------------------------------------|
D-------------------------------------------------------------------|
A-------------------------------------------------------------------|
Db---4------------------------------------3-------------------------|

                                                                          x2

G-------------------------------------------------------------------|
D-------------------------------------------------------------------|
A-------------------------------------------------------------------|
Db---1------------------------------------0-------------------------|

_____________________________________________________________________________


Guitar 1  (2:43)
E-------1-----------1-----------1-------1-----------1-----------1---|
B-----------1-----------1-------------------1-----------1-----------|
G-------------------------------------------------------------------|
D---3-----------3-----------3-------2-----------2-----------2-------|
A-------------------------------------------------------------------|
E-------------------------------------------------------------------|

                                                                        x2

E-------1-----------1-----------1-------1-----------1-----------1---|
B-----------1-----------1-------------------1-----------1-----------|
G-------------------------------------------------------------------|
D---0-----------0-----------0---------------------------------------|
A-----------------------------------4-----------4-----------4-------|
E-------------------------------------------------------------------|


Bass         (2:43)
G------------------------------------------------------------------|
D------------------------------------------------------------------|
A---8-------------------------------7------------------------------|
Db-----------------------------------------------------------------|

                                                                         x2

G-------------------------------------------------------------------|
D-------------------------------------------------------------------|
A---5-------------------------------4-------------------------------|
Db------------------------------------------------------------------|

_____________________________________________________________________________


Guitar 1    (3:01)
E------------------------------------------------0------------------|
B----6---5---6---5---6---8-----8-----8-----6-----5------------------|
G-------------------------------------------------------------------|
D-------------------------------------------------------------------|      x2
A-------------------------------------------------------------------|
E-------------------------------------------------------------------|

______________________________________________________________________________


Guitar 2  (3:37)
E-------------------------------------------------------------------|
B---18----18--------------------------------------------------------|
G---------------20---20---20---17-----17---17---17---20-----20---20-|
D-------------------------------------------------------------------|
A-------------------------------------------------------------------|
E-------------------------------------------------------------------|

                                                                         x4

E-------------------------------------------------------------------|
B-------------------------------------------------------------------|
G---15-----15-----15---15---15---14-----14---14---14---14---14---14-|
D-------------------------------------------------------------------|
A-------------------------------------------------------------------|
E-------------------------------------------------------------------|
Suggest correction
What's this?
You can suggest a correction to this tab. Community and Mods will review your correction and vote to approve or reject it.
comments
print report bad tab
1 comment total.
0 reply
norsvolos 32 wrote on June 24 2011, 07:00 pm

Nice it sounds accurate

guest
You may want to rate the tab now too:
select rating
Please do not post tabs as comments. Select "correction" instead!