Oops, an error
Loading. Please wait.

Angel With The Scabbed Wings tab

version 4
version 4

Whole song

Interactive

11,622 views 9 this week
1 commentread comment
1 2 3 4 5
x 10
add to favorites
×
Save as Personal and add changes to this tab that will be seen only by you. Learn more ›
×
You can save this tab as Personal to edit and correct it or add notes. All changes will be seen only by you. Learn more »
launch autoscroll
font size
0
reset
how to read this tab
guitar tuner
edit
Autoscroll
slow
fast
+/-
esc
set tempo
stop
Author
Band: Marilyn Manson
Song: Angel with Scabbed Wings
Album: Anti-Christ Superstar
Tuneing: E A D G B E

Intro: Gtr.1 Play past the first bar 11x
Fig.1
--------|-----------||
--------|-----------||
--------|----------.||
--------|----------.||
--3-4-5-|-2-3-4-5\3-||
--1-2-3-|-0-1-2-3\1-||

(Inro continued)Gtr.1 play this 8x     Gtr.2 Play on forth time of Fig.2 
Fig.2                          Fig.3
--------------------|         ------------------------------|
--------------------|         --4~-9^-8^-11^-10-9-10-9-3----| 
--------------------|         ------------------------------|
---------8----------|         ------------------------------|
--3-2-xxx7-xx-xx----|         ------------------------------|
--1-0-xxx--xx-xx----|         ------------------------------|

Verse 1:Gtr.1 play till end of verse 1
Fig.4
--------------------|   Verse 1: It's the angel with the scabbed wings,
--------------------|     hard drug face, wanna powder his nose,   
--------------------|     he will deflower the freshest cropdrop up with his 
--------------------|     rock and roll sores,rock and roll sores,
--------------------|     rock and roll sores,
--1-0-xxx-1-xx-xx---|

Verse 2:Gtr.1 play till end of verse 2
--------------------|   Verse 2: Dead is what he is,he does what,
--------------------|     he plays with things,   
--------------------|     that he is what your never gonna see,
--------------------|     what your never gonna be,
--3-2-xxx-x-xx-xx---|     scared of little me,When your looking past people,
--1-0-xxx-x-xx-xx---|     you don't wanna see if you only wanna be him,
                          cut this tight rope gotta let it go,
                          look at these people he sewed,
Chorus:Gtr.1 and 2 play till end of chorus
-----------------------|   
-----------------------|   Chorus:He is the maker,he is the taker,
-----------------------|         he is a savior,he is the raper,
-----------------------|
--2--3--444-44-44-44---|
--0--1--222-22-22-22---|
         pm.........

Interlude:Gtr.1 play 4x(between the bar lines)
------|------------||------|
------|------------||------|
------|-----------.||------|
------|-----------.||------|
--4-3-|--2-3-4-5\3-||-2----|
--2-1-|--0-1-2-3\1-||-0----|

Verse 3:Gtr.1 play till end of 3rd verse
-------------------|  Verse 3:(same as 1rst verse)
-------------------|
-------------------|
-------------------|
--2-3-4-5\3--------|
--0-1-2-3\1--------|

Chorus:Gtr.1 and Gtr.2 play till end of chorus
----------------------|
----------------------|  Chorus:(same of course)
----------------------|
----------------------|
--2--3--444-44-44-44--|
--0--1--222-22-22-22--|
         pm.........

Verse 4:Gtr.1 repeat till end of verse 4
----------------|
----------------|   Verse 4:Get back your never gonna leave him,
----------------|      get back your always goona please him,
----4-3---------|      get back your never gonna leave him, 
--2-2-1-4-3-2---|      get back your always gonna please him,
--0-----2-1-0---| 

Outro:Gtr 1 play this a couple of times    
----------------|
----------------|
----------------|
----------------|
----------------|
--1-0xxx-1xx-xx-|

(Outro continued)Gtr.1 play till end
----------------|
----------------|
----------------|
--------8-------|
--3-2xxx7xx-xx--|
--1-0xxx-xx-xx--|


If any body has any questions or what ever e mail me.Twiggy666star@aol

            
            
Suggest correction
Creating personal tab
Creating personal tab
You can edit any tab online and save it as your Personal.

You can edit, replace or remove any tab part or add personal notes – all changes will be seen only by you.

Personal tabs can be accessed anytime from any device, even offline.
Learn more »
comments
print report bad tab
1 comment total.
0 reply
XtractionProces 30 Nov 07, 2008 01:02 AM

Nice tab. Only thing I'd change is the chorus and tuning. First off, play it in drop D. Makes life much easier. Second reason for this is my correction on the chorus.

----------------------|
----------------------|
----------------------|
----------------------|
--2--3--400-00-00-00--|
--2--3--400-00-00-00--|
PM-------..-..-..-..--

guest
You may want to rate the tab now too:
select rating
Wanna post a correction for this tab? Suggest correction