Oops, an error
Loading. Please wait.

Born Again Tab

version 1
version 1

Whole song

Interactive

2,072 views 3 this week
no commentswrite comment
1 2 3 4 5
please rate
add to favorites
launch autoscroll
font size
0
reset
how to read this tab
guitar tuner
Autoscroll
slow
fast
+/-
esc
set tempo
stop
Help us to improve Ultimate-Guitar.com Take our survey!
×
Song: Born Again
Artist: Marilyn Manson
Album: Holy Wood
As tabbed by Joe Muggah

Verse                                       Riff
e---------------------------------------|-----------
B---------------------------------------|-----------
G---------------------------------------|-----------
D--2----6^/5-----2-----2----6^/5----2---|---6^/5----
A--2-------------2-----2------------2---|-----------
E--0-------------0-----0------------0---|-----------
("Do you or don't you...")

Pre-Chorus (All notes hit 8 times)
e---------------------------------------------------
B---------------------------------------------------
G--9---12---14---12----9---12---14---14---12---11---
D--9---12---14---12----9---12---14---14---12---11---
A--7---10---12---10----7---10---12---12---10----9---
E---------------------------------------------------
("I'll put down your disco...")

Chorus A (Guitar 1, each hit 2 times)
e----------------------------------|----------------
B----------------------------------|-(end on)-------
G--9-9-9-9-------------------------|----------------
D--9-9-9-9--10-10-10-10--9-9-9-9---|--7--5----------
A--7-7-7-7--10-10-10-10--9-9-9-9---|--7--5----------
E------------8--8--8--8--7-7-7-7---|--5--3----------
("I'm someone else, I'm someone new...")

Break
e---------------------------------------------------
B---------------------------------------------------
G--12----11-----9----16----12----11-----9----16-----
D---x-----x-----x-----x-----x-----x-----x-----x-----
A--10-----9-----7----14----10-----9-----7----14-----
E---0--0--0--0--0--0--0--0--0---0-0---0-0--0--0-----
("The valley of the dolls...")

Chorus B (Guitar 2)
e--7----------------7-------5^----------------------
B------5---7^-----------5---------------------------
G---------------------------------------------------
D---------------------------------------------------
A---------------------------------------------------
E---------------------------------------------------

Verse
Pre-Chorus, Riff
Chorus A
Verse
Pre-Chorus, Riff
Chorus A
Break, Riff
Chorus A
Chorus A, B
===========
          Tabbed by : julian015@hotmail.com
          Artist    : Marilyn Manson
          Album     : Holy Wood (In The Shadow Of The Valley Of Death)
          Song      : Track #13 - Born Again 
          
          Tuning: Drop D (DADGBE)
          
          Intro : (I don't know whether this is a synth or a guitar - 
          but either way, here it is :)
          
          Key :
          
          * = The E5 chord is played as normal, but an Octave pedal is activated
          to lower the tone of the chord. I might post an audio sample of this
          if enough people say "huh??". 
          
          xbyrx = Bend note (x) to note (y) then release back to note (x)
          
          B|----------------------------|
          G|-------------------12b13r12-|
          D|-2*-----5b6r5-(or)-12b13r12-|
          A|-2*-----5b6r5-(or)-10b11r10-|
          E|-0*-----3b4r3-(or)----------|
             
          Bridge ("I'll put down your disco...")
          
          B|-----------------------------------------------|
          G|-9---12---14---12---9---12---14---14---12---11-|
          D|-9---12---14---12---9---12---14---14---12---11-|
          A|-7---10---12---10---7---10---12---12---10---9--|
          E|-----------------------------------------------|
          
          Chorus ("I'm someone else, I'm someone new...")
          
          B|-------------------------------------|
          G|-9---9---5---4---9---9---5---2-------|
          D|-9---9---5---4---9---9---5---2---7-5-|
          A|-7---7---3---2---7---7---3---4---7-5-|
          E|---------------------------------5-3-|
          
          
          
          

==============

Song:Born Again
Album:Holy Wood(In the Shadow of the Valley of Death)
Artist:MAR1LYN MAN5ON
TAbbed:Jose O. Hernandez Loyola

*=8 times each chord

Intro

E|------------|
B|------------|
G|------------|
D|-2--6^5-2--|
A|-2-------2--|
E|-0-------0--|
   
Verse

E|------------|
B|------------|
G|------------|
D|-2--6^5-2--|
A|-2-------2--|
E|-0-------0--|
do you or don't you want to be this song.....

Bridge ("I'll put down your disco...")
*=8 times each chord

E|------------------------------------------------------|
B|------------------------------------------------------|
G|-9*---12*---14*---12*---9*---12*---14*--12*--11~10~--|
D|-9*---12*---14*---12*---9*---12*---14*--12*--11~10~--|
A|-7*---10*---12*---10*---7*---10*---12*--10*---9~-8~--|
E|------------------------------------------------------|
I'll put down your disco....

Chorus 

E|---------------------------------------|
B|---------------------------------------|
G|-99999999999999999-55555555-444444440--|
D|-99999999999999999-55555555-444444440--|
A|-77777777777777777-33333333-222222220--|
E|---------------------------------------|
I'm someone else...

Then cont...

E|-----------------------------------------|
B|-----------------------------------------|
G|-99999999999999999-55555555-44444444-----|
D|-99999999999999999-55555555-444444447-5--|
A|-77777777777777777-33333333-222222227-5--|
E|------------------------------------5-3--|

Interlude: (this is part is whit a rare distortion the same
that John5 use in the Intro of the Minute of Decay)

E|----------------------------------------|
B|----------------------------------14~~--|
G|-11-12~~---11-10~~---11-12~~---11-------|
D|-11-11~~---11-11~~---11-11~~---11-------|
A|--9---------9---------9---------9-------|
E|----------------------------------------|

Intro - x2
Verse - x8
Bridge - x1
Chorus - 1
Verse - x5
Bridge - x1
Chorus - x2
Interlude - x3 (in the 3rth time include the intro)
Chorus - x6
Suggest correction
What's this?
You can suggest a correction to this tab. Community and Mods will review your correction and vote to approve or reject it.
comments
We did not receive enough feedback on this tab! Please rate:
print report bad tab
1 2 3 4 5
guest
You may want to rate the tab now too:
select rating
Please do not post tabs as comments. Select "correction" instead!