Oops, an error
Loading. Please wait.

Coma Black Tab

version 1
version 1

Whole song

Interactive

29,235 views 39 this week
5 commentsread comments
1 2 3 4 5
x 17
add to favorites
launch autoscroll
font size
0
reset
how to read this tab
guitar tuner
×
Best way to learn
"Coma Black"
Autoscroll
slow
fast
+/-
esc
set tempo
stop
1. Song: Coma Black

a)Eden eye
 
[Intro/Verse]
(lead guitar)
e|-3-----3-----3---3-----3-----5---|
B|---5-----5-----5---5-----5-----5-|
G|-----4-----4---------4-----4-----|
D|---------------------------------|
A|---------------------------------|
E|---------------------------------|

[Intro]
(rhythm guitar)
e|----------|
B|----------|
G|-9-12-7-5-|
D|-x--x-x-x-|
A|-7-10-5-3-|
E|----------|

Then there is that bridge.
"We burned all the good things in the eden eye"
e|---------------------------------|
B|-----0----------0----------------|
G|-------5------5-------2p0---0---0|
D|---2--------2-------0------------|
A|-0--------0-------0-------3---2--|
E|---------------------------------|

"We were to dumb to run to dead to die"
e|-----------------------------------|
B|-----------------------------------|
G|-7-7-7-7-7-7-7-7-5-5-5-5-5-5-5-5-5-|
D|-7-7-7-7-7-7-7-7-5-5-5-5-5-5-5-5-5-|
A|-5-5-5-5-5-5-5-5-3-3-3-3-3-3-3-3-3-|
E|-----------------------------------|

[Chorus]
"This was never my world you toke the angel away,
I killed my self to make everybody pay"
e|-------------------------------------|
B|-------------------------------------|
G|-------------------77777777-55555555-|
D|-22222222-55555555-77777777-55555555-|
A|-22222222-55555555-55555555-33333333-|
E|-00000000-33333333-------------------|

[Verse 2]
"I would have told..."
e|-------------|
B|-0---0---0---|
G|---3---3---3-|
D|-------------|
A|-------------|
E|-------------|

b)Apple of discord

(Rhythm guitar)
e|----------------------------------|
B|----------------------------------|
G|----------------------------------|
D|-10--9---10--9---7---5------------|
A|-------------------------3---5---7|
E|-0---0---0---0---0---0---0---0---0|

(Lead guitar)
"Her heart..."
e|------------------14~-14~-14~-14~|
B|---------------------------------|
G|-9-11-11-11-11-12----------------|
D|---------------------------------|
A|---------------------------------|
E|---------------------------------|

(Lead guitar)
"And we can never..."
e|--------------14~-14~-14~-14~|
B|-----------------------------|
G|-11-11-9-9-11----------------|
D|-----------------------------|
A|-----------------------------|
E|-----------------------------|


2. Song: "President Dead" (solo)

[Solo]
e|------------------------------2p0------0-----3~--|
B|-------------3-2----15-14-12------3p0------------|
G|--------4--------2------------------------4~-----|
D|----------4--------------------------------------|  x2
A|-0h2---------------------------------------------|
E|-------------------------------------------------|

e|-11--------11--------11-------|
B|----10-10-----10-10-----10-10-|
G|------------------------------|
D|------------------------------|
A|------------------------------|
E|------------------------------|


************************************

| x  Dead note
| p  Pull-off
| ~  Vibrato
| h  Hammer-on

************************************
Suggest correction
comments
print report bad tab
5 comments total. Showing first comments.
+1 reply
Punk-Goth-Angel 91 Feb 10, 2007 10:48 AM

you have made a very good work.
so I must say "YEAH"

-1 reply
shred_hed101 10 Apr 21, 2007 09:34 PM

Yes because Thunderstruck is so damn hard to play. Loser.

+1 reply
chasef 629 Oct 02, 2007 02:34 PM

nice loved it

guest
You may want to rate the tab now too:
select rating
Wanna post a correction for this tab? Suggest correction