Oops, an error
Loading. Please wait.

Coma White Tab

version 1
77,182 views 105 this week
17 commentsread comments
1 2 3 4 5
x 26
add to favorites
launch autoscroll
font size
0
reset
how to read this tab
guitar tuner
×
Best way to learn
"Coma White"
Autoscroll
slow
fast
+/-
esc
set tempo
stop
[Intro]

e|---------------------------------------------------------------------|
B|---0---0---0---0--1-1-----0---0---0---0--1-1-----0---0---0---0-1-1---|
G|-2---2---2---2----------2---2---2---2----------2---2---2---2---------|
D|---------------------------------------------------------------------|
A|---------------------------------------------------------------------|
E|---------------------------------------------------------------------|

e|-----------------------------------------|
B|-------0---0------0-----0----------------|
G|-///7----7----\\5---\\4------------------|     
D|-----------------------------------------|
A|-----------------------------------------|
E|-----------------------------------------|(x6)


[Chorus]

e|--------------------------------------------------------|
B|--------------------------------------------------------|
G|--------------------------------------------------------|    
D|-77777777/1010101010101010\55555555\33333333------------|
A|-77777777/1010101010101010\55555555\33333333------------|
E|-55555555/8-8-8-8-8-8-8-8-\33333333\11111111------------|(x2)

e|----------------------------------------------------------|
B|----------------------------------------------------------|
G|----------------------------------------------------------|
D|-//7777/10/12-8~~888/10/12-7~~777-12\10\\\3~~~~-----------|
A|-//7777/10/12-8~~888/10/12-7~~777-12\10\\\3~~~~-----------|
E|-//5555/8-/10-6~~666/8-/10-5~~555-10\-8\\\1~~~~-----------|


[Main Riff]

e|---------------------------------------------------------------------|
B|---0---0---0---0--1-1-----0---0---0---0--1-1-----0---0---0---0-1-1---|
G|-2---2---2---2----------2---2---2---2----------2---2---2---2---------|
D|---------------------------------------------------------------------|
A|---------------------------------------------------------------------|
E|---------------------------------------------------------------------|

e|-----------------------------------------|
B|-------0---0------0-----0----------------|
G|-///7----7----\\5---\\4------------------|
D|-----------------------------------------|
A|-----------------------------------------|
E|-----------------------------------------|(x4)


[Chorus] (x2)

e|--------------------------------------------------------|
B|--------------------------------------------------------|
G|--------------------------------------------------------|
D|-77777777/1010101010101010\55555555\33333333------------|
A|-77777777/1010101010101010\55555555\33333333------------|
E|-55555555/8-8-8-8-8-8-8-8-\33333333\11111111------------|(x4)

e|----------------------------------------------------------|
B|----------------------------------------------------------|
G|----------------------------------------------------------|
D|-//7777/10/12-8~~888/10/12-7~~777-12\10\\\3~~~~-----------|
A|-//7777/10/12-8~~888/10/12-7~~777-12\10\\\3~~~~-----------|
E|-//5555/8-/10-6~~666/8-/10-5~~555-10\-8\\\1~~~~-----------|(x2)


[Solo]

e|----------------------------------------------------------|
B|-10-10-10-10----10----------10-------10-------------------|
G|-------------12----12-11-11----11-10----11p10h11----------|
D|----------------------------------------------------------|
A|----------------------------------------------------------|
E|----------------------------------------------------------|(x2)


e|-----12-10-12--------12-10-12-------12-10-12-------12-10-12---|
B|-12~~------------12~~-----------12~~-----------12~~-----------|
G|--------------------------------------------------------------|
D|--------------------------------------------------------------|
A|--------------------------------------------------------------|
E|--------------------------------------------------------------|


[End Chorus]

e|--------------------------------------------------------|
B|--------------------------------------------------------|
G|--------------------------------------------------------|
D|-77777777/1010101010101010\55555555\33333333------------|
A|-77777777/1010101010101010\55555555\33333333------------|
E|-55555555/8-8-8-8-8-8-8-8-\33333333\11111111------------|(x5)


[Outro]

e|--------------------------------------------|
B|--0h2-0-------------------------------------|
G|----------2-0-------------------------------|
D|--------------------------------------------|
A|--------------------------------------------|
E|--------------------------------------------|



************************************

| /  Slide up
| \  Slide down
| ~  Vibrato
| h  Hammer-on
| p  Pull-off

************************************
Suggest correction
comments
print report bad tab
17 comments total. Showing first comments.
0 reply
BassyGuitarist 10 May 11, 2003 08:00 PM

That's friggin perfect man, 5

0 reply
spiderliam 10 Nov 25, 2003 07:00 PM

you've got the intro wrong, and the solo, but only one part ofthe solo, but the rest is perfect

intro:
e--------------------------------------------------
B----0---0---0---0---0---0--0--0--0--0--0--0--0--0-
G---4---4---4---4---5---5--7--7--7--7--5--5--4--4--
D--7---7---7---7-----------------------------------
A--------------------------------------------------
E--------------------------------------------------

solo:
e-----------------------------------------------
B-----------------------------------------------
G-----------------------------------------------
D-//7777/10/12-6~~666/10/12-7~~777-12\10\\\3~~~~
A-//7777/10/12-6~~666/10/12-7~~777-12\10\\\3~~~~
E-//5555/8-/10-4~~444/8-/10-5~~555-10\-8\\\1~~~~

thats them corrected.

-1 reply
spiderliam 10 Nov 25, 2003 07:00 PM

actually, that wasnt the solo, that was the bridge bit which is played over the solo at the same time on another guitar (which was wrong and is now right), the other part ofthe solo was right though.

guest
You may want to rate the tab now too:
select rating
Wanna post a correction for this tab? Suggest correction