Oops, an error
Loading. Please wait.

Coma White Acoustic chords

version 3
version 3
59,713 views 60 this week
1 commentread comment
1 2 3 4 5
x 28
add to favorites
×
Save as Personal and add changes to this tab that will be seen only by you. Learn more ›
×
You can save this tab as Personal to edit and correct it or add notes. All changes will be seen only by you. Learn more »
launch autoscroll
font size
0
reset
transpose
0
reset
display chords
guitar tuner
backing track
0:00
0:00
edit
Autoscroll
slow
fast
+/-
esc
set tempo
stop
Author
Difficulty
Unregistered
Strumming
There is no strumming pattern for this song yet. and get +5 IQ
[Intro]

e-------------------------------------------------------|
B------0------0------0------0-----0---0-----------------|
G----4------4------4------4-----5---5-------------------|  (x3)
D--7------7------7------7-------------------------------|
A-------------------------------------------------------|
E-------------------------------------------------------|

(continued)
e-------------------------------------------------------|
B-------0-----0-----0-----0-----0-----0-----0-----0-----|
G--5/7-----7-----7-----7-----5-----5-----4-----4--------|
D-------------------------------------------------------|
A-------------------------------------------------------|
E-------------------------------------------------------|


[Verse] (PLAY INTRO ALL THROUGH FIRST VERSE)

There's something cold and blank
Behind her smile
She's standing on an overpass
In a miracle mile
Cause you were from a perfect world
A world that threw me away today, today, today
To run away


[Chorus]

Am
  A pill to make you numb
C
  A pill to make you dumb
G                   F
  A pill to make you anybody else
Am                         C
  But all the drugs in this world
       G                F
 won't save her from herself


[SOLO]

e-5-5-5-5----5----------5------5---------------------------|
B----------8----8-7--7----7--6----6p5h6--------------------|
G----------------------------------------------------------| (x2)
D----------------------------------------------------------|
A----------------------------------------------------------|
E----------------------------------------------------------|


[Verse 2] (PLAY INTRO ALL THROUGH SECOND VERSE)

Her mouth was an empty cut
She was waiting to fall
Just bleeding like a poloroid
That lost all her dolls
Cause you were from a perfect world
A world that threw me away today, today, today
To run away


[Chorus]

Am
  A pill to make you numb
C
  A pill to make you dumb
G                   F
  A pill to make you anybody else
Am                         C
  But all the drugs in this world
       G                F
 won't save her from herself

Am
  A pill to make you numb
C
  A pill to make you dumb
G                   F
  A pill to make you anybody else
Am                         C
  But all the drugs in this world
       G                F
 won't save her from herself

[End Chorus]
e--------------------------------------------------------------------------|
B--------------------------------------------------------------------------|
G--------------------------------------------------------------------------|    x5
D-7-7-7-7-7-7-7-7/10-10-10-10-10-10-10-10\5-5-5-5-5-5-5-5\3-3-3-3-3-3-3-3--|
A-7-7-7-7-7-7-7-7/10-10-10-10-10-10-10-10\5-5-5-5-5-5-5-5\3-3-3-3-3-3-3-3--|
E-5-5-5-5-5-5-5-5/8--8--8--8--8--8--8--8-\3-3-3-3-3-3-3-3\1-1-1-1-1-1-1-1--|


[OUTRO] [same as solo]
e-5-5-5-5----5----------5------5---------------------------|
B----------8----8-7--7----7--6----6p5h6--------------------|
G----------------------------------------------------------| (x2)
D----------------------------------------------------------|
A----------------------------------------------------------|
E----------------------------------------------------------|

************************************

| h  Hammer-on
| p  Pull-off
| /  Slide up
| \  Slide down

************************************

If there's anything you like to sugest, i'll be able on:
dann.ie@hotmail.com
spleenandcigars@gmail.com

Enjoy!
Suggest correction
Creating personal tab
Creating personal tab
You can edit any tab online and save it as your Personal.

You can edit, replace or remove any tab part or add personal notes – all changes will be seen only by you.

Personal tabs can be accessed anytime from any device, even offline.
Learn more »
comments
print report bad tab
1 comment total.
-1 reply
diceysnowball 20 Apr 29, 2013 12:06 PM

nice job. It sounds a little a different, but good

guest
Wanna post a correction for this tab? Suggest correction