Oops, an error
Loading. Please wait.
8,209 views 3 this week
4 commentsread comments
1 2 3 4 5
x 10
add to favorites
×
Save as Personal and add changes to this tab that will be seen only by you. Learn more ›
×
You can save this tab as Personal to edit and correct it or add notes. All changes will be seen only by you. Learn more »
launch autoscroll
font size
0
reset
how to read this tab
guitar tuner
backing track
0:00
0:00
edit
Autoscroll
slow
fast
+/-
esc
set tempo
stop
Author
                                   COMA WHITE
                          As recorded by Marilyn Manson
                    (From the 1998 Album MECHANICAL ANIMALS)

Words and Music by Marilyn Manson
Arranged by Marilyn Manson

Gtr I (E A D G B E)
Gtr II (E A D G B E)
Gtr III (E A D G B E)

 Intro
  Q=85
 4/4
  Gtr I
  S S S S S S S S S S S S S S S S   S S S S S S S S S S S S S S S S
|---------------------------------|----------------------------------|
|-----0-----0-----0-----0---0---0-|-----0-----0-----0-----0---0---0--|
|---4-----4-----4-----4---5---5---|---4-----4-----4-----4---5---5----|
|-7-----7-----7-----7-------------|-7-----7-----7-----7--------------|
|---------------------------------|----------------------------------|
|---------------------------------|----------------------------------|


  S S S S S S S S S S S S S S S S    S S S S S S S S S S S S S S S S
|---------------------------------|----------------------------------|
|-----0-----0-----0-----0---0---0-|----0---0---0---0---0---0---0---0-|
|---4-----4-----4-----4---5---5---|-/7---7---7---7---5---5---4---4---|
|-7-----7-----7-----7-------------|----------------------------------|
|---------------------------------|----------------------------------|
|---------------------------------|----------------------------------|


  S S S S S S S S S S S S S S S S   S S S S S S S S S S S S S S S S
|---------------------------------|---------------------------------|
|-----0-----0-----0-----0---0---0-|-----0-----0-----0-----0---0---0-|
|---4-----4-----4-----4---5---5---|---4-----4-----4-----4---5---5---|
|-7-----7-----7-----7-------------|-7-----7-----7-----7-------------|
|---------------------------------|---------------------------------|
|---------------------------------|---------------------------------|


  S S S S S S S S S S S S S S S S    S S S S S S S S S S S S S S S S
|---------------------------------|----------------------------------|
|-----0-----0-----0-----0---0---0-|----0---0---0---0---0---0---0---0-|
|---4-----4-----4-----4---5---5---|-/7---7---7---7---5---5---4---4---|
|-7-----7-----7-----7-------------|----------------------------------|
|---------------------------------|----------------------------------|
|---------------------------------|----------------------------------|


   Verse
    S S S S S S S S S S S S S S S S   S S S S S S S S S S S S S S S S
||----------------------------------|---------------------------------|
||o-----0-----0-----0-----0---0---0-|-----0-----0-----0-----0---0---0-|
||----4-----4-----4-----4---5---5---|---4-----4-----4-----4---5---5---|
||--7-----7-----7-----7-------------|-7-----7-----7-----7-------------|
||o---------------------------------|---------------------------------|
||----------------------------------|---------------------------------|


  S S S S S S S S S S S S S S S S    S S S S S S S S S S S S S S S S     3x
|---------------------------------|--------------------------------------||
|-----0-----0-----0-----0---0---0-|----0---0---0---0---0---0---0---0----o||
|---4-----4-----4-----4---5---5---|-/7---7---7---7---5---5---4---4-------||
|-7-----7-----7-----7-------------|--------------------------------------||
|---------------------------------|-------------------------------------o||
|---------------------------------|--------------------------------------||


 Pre-Chorus
  S S S S S S S S S S S S S S S S   S S S S S S S S S S S S S S S S
|---------------------------------|---------------------------------|
|-----0-----0-----0-----0---0---0-|-----0-----0-----0-----0---0---0-|
|---4-----4-----4-----4---5---5---|---4-----4-----4-----4---5---5---|
|-7-----7-----7-----7-------------|-7-----7-----7-----7-------------|
|---------------------------------|---------------------------------|
|---------------------------------|---------------------------------|
|
| Gtr II
| W                                 W
|-8-------------------------------|-7-------------------------------|
|---------------------------------|---------------------------------|
|---------------------------------|---------------------------------|
|---------------------------------|---------------------------------|
|---------------------------------|---------------------------------|
|---------------------------------|---------------------------------|


   S  S S S S S S S S S S S  S S S S    S S S S S S S S  S S S S S S S S
|------------------------------------|--------------------------------------|
|-------0-----0-----0-----0----0---0-|----0---0---0---0----0---0---0---0----|
|-----4-----4-----4-----4----5---5---|-/7---7---7---7----5---5---4---4------|
|--7------7-----7-----7--------------|--------------------------------------|
|------------------------------------|--------------------------------------|
|------------------------------------|--------------------------------------|
|
|  H.                        Q          H                H
|-17------------------------19-------|-20---------------22------------------|
|------------------------------------|--------------------------------------|
|------------------------------------|--------------------------------------|
|------------------------------------|--------------------------------------|
|------------------------------------|--------------------------------------|
|------------------------------------|--------------------------------------|


 Chorus
  Gtrs II, III
  E E  E  E E  E  E E    E  E  E  E  E  E   E  E
|---------------------|--------------------------|
|---------------------|--------------------------|
|---------------------|--------------------------|
|-7-7--7--7-7--7--7-7-|-10-10-10-10-10-10--10-10-|
|-7-7--7--7-7--7--7-7-|-10-10-10-10-10-10--10-10-|
|-5-5--5--5-5--5--5-5-|--8--8--8--8--8--8---8--8-|


   E E  E  E E  E  E E    E E  E  E E  E  E E
|----------------------|----------------------|
|----------------------|----------------------|
|----------------------|----------------------|
|--5-5--5--5-5--5--5-5-|--5S3--3--3-3--3--3-3-|
|--5-5--5--5-5--5--5-5-|--5S3--3--3-3--3--3-3-|
|--3-3--3--3-3--3--3-3-|--3S1--1--1-1--1--1-1-|


   E E  E  E E  E  E E    E  E  E  E  E  E   E  E
|----------------------|--------------------------|
|----------------------|--------------------------|
|----------------------|--------------------------|
|--7-7--7--7-7--7--7-7-|-10-10-10-10-10-10--10-10-|
|--7-7--7--7-7--7--7-7-|-10-10-10-10-10-10--10-10-|
|--5-5--5--5-5--5--5-5-|--8--8--8--8--8--8---8--8-|


   E E  E  E E  E  E E    E E  E  E H
|----------------------|--------------------|
|----------------------|--------------------|
|----------------------|--------------------|
|--5-5--5--5-5--5--5-5-|--5S3--3--3-3-------|
|--5-5--5--5-5--5--5-5-|--5S3--3--3-3-------|
|--3-3--3--3-3--3--3-3-|--3S1--1--1-1-------|


 Bridge
  Gtr III
  E E E E  E  E E E   +E  E E E  E  E E   E
|-------------------|-------------------------|
|-------------------|-------------------------|
|-------------------|-------------------------|
|-7-7-7-7-10-12---6-|-(6)-6-6-6-10-12-----7---|
|-7-7-7-7-10-12---6-|-(6)-6-6-6-10-12-----7---|
|-5-5-5-5--8-10-0-4-|-(4)-4-4-4--8-10-0---5---|
|
| Gtr II
| E E E E  E  E E E   +E  E E E  E  E S S S S
|-5---5----3--5-3-2-|-(2)-2-5-2--1--3---------|
|---5---5-----------|-----------------1s3-1s3-|
|-------------------|-------------------------|
|-------------------|-------------------------|
|-------------------|-------------------------|
|-------------------|-------------------------|


  E E   E E  E  E E E   +E  E E E E E E   E
|---------------------|------------------------|
|---------------------|------------------------|
|---------------------|------------------------|
|-7-7---7-7-12-10---5-|-(5)-5-5-5-5-5-5---5----|
|-7-7---7-7-12-10---3-|-(3)-3-3-3-3-3-3---3----|
|-5-5---5-5-10--8-0-1-|-(1)-1-1-1-1-1-1---1----|
|
| E S S E E  E  E E E   +E  E E E E E S S S S
|-5-----5----3--5-3-2-|-(2)-2-5-2-1-3----------|
|---5-5---5-----------|---------------1s3-1s3--|
|---------------------|------------------------|
|---------------------|------------------------|
|---------------------|------------------------|
|---------------------|------------------------|


 Verse
  Gtr I
    S S S S S S S S S S S S S S S S    S  S S S S S S S S S S S S S S S
|-----------------------------------|-----------------------------------|
|-------0-----0-----0-----0---0---0-|-------0-----0-----0-----0---0---0-|
|-----4-----4-----4-----4---5---5---|-----4-----4-----4-----4---5---5---|
|---7-----7-----7-----7-------------|--7------7-----7-----7-------------|
|-----------------------------------|-----------------------------------|
|-----------------------------------|-----------------------------------|
|
| Gtr II
| a W                                 +W
|-----------------------------------|-----------------------------------|
|-3s5-------------------------------|-(5)-------------------------------|
|-----------------------------------|-----------------------------------|
|-----------------------------------|-----------------------------------|
|-----------------------------------|-----------------------------------|
|-----------------------------------|-----------------------------------|


   S  S S S S S S S S S S S S S S S     S   S S S S S S S S S S S S S S S
|-----------------------------------|----------------------------------------|
|-------0-----0-----0-----0---0---0-|-------0---0---0---0---0---0---0---0----|
|-----4-----4-----4-----4---5---5---|--/7-----7---7---7---5---5---4---4------|
|--7------7-----7-----7-------------|----------------------------------------|
|-----------------------------------|----------------------------------------|
|-----------------------------------|----------------------------------------|
|
|  W                                   +W
|-----------------------------------|----------------------------------------|
|-[5]-------------------------------|-([5])----------------------------------|
|-----------------------------------|----------------------------------------|
|-----------------------------------|----------------------------------------|
|-----------------------------------|----------------------------------------|
|-----------------------------------|----------------------------------------|


     S  S S S S S S S S S S S S S S S    S  S S S S S S S S S S S S S S S
||------------------------------------|-----------------------------------|
||o-------0-----0-----0-----0---0---0-|-------0-----0-----0-----0---0---0-|
||------4-----4-----4-----4---5---5---|-----4-----4-----4-----4---5---5---|
||---7------7-----7-----7-------------|--7------7-----7-----7-------------|
||o-----------------------------------|-----------------------------------|
||------------------------------------|-----------------------------------|
|
|   +W                                  +W
||------------------------------------|-----------------------------------|
||o-(5)-------------------------------|-(5)-------------------------------|
||------------------------------------|-----------------------------------|
||------------------------------------|-----------------------------------|
||o-----------------------------------|-----------------------------------|
||------------------------------------|-----------------------------------|


   S  S S S S S S S S S S S S S S S    S  S S S S S S S S S S S S S S S
|-----------------------------------|---------------------------------------||
|-------0-----0-----0-----0---0---0-|-----0---0---0---0---0---0---0---0----o||
|-----4-----4-----4-----4---5---5---|-/7----7---7---7---5---5---4---4-------||
|--7------7-----7-----7-------------|---------------------------------------||
|-----------------------------------|--------------------------------------o||
|-----------------------------------|---------------------------------------||
|
| +W                                  +W
|-----------------------------------|---------------------------------------||
|-(5)-------------------------------|-(5)----------------------------------o||
|-----------------------------------|---------------------------------------||
|-----------------------------------|---------------------------------------||
|-----------------------------------|--------------------------------------o||
|-----------------------------------|---------------------------------------||


 Pre-Chorus
  S S S S S S S S S S S S S S S S   S S S S S S S S S S S S S S S S
|---------------------------------|---------------------------------|
|-----0-----0-----0-----0---0---0-|-----0-----0-----0-----0---0---0-|
|---4-----4-----4-----4---5---5---|---4-----4-----4-----4---5---5---|
|-7-----7-----7-----7-------------|-7-----7-----7-----7-------------|
|---------------------------------|---------------------------------|
|---------------------------------|---------------------------------|
|
| W                                 W
|-8-------------------------------|-7-------------------------------|
|---------------------------------|---------------------------------|
|---------------------------------|---------------------------------|
|---------------------------------|---------------------------------|
|---------------------------------|---------------------------------|
|---------------------------------|---------------------------------|


   S  S S S S S S S S S S S  S S S S    S S S S S S S S  S S S S S S S S
|------------------------------------|--------------------------------------|
|-------0-----0-----0-----0----0---0-|----0---0---0---0----0---0---0---0----|
|-----4-----4-----4-----4----5---5---|-/7---7---7---7----5---5---4---4------|
|--7------7-----7-----7--------------|--------------------------------------|
|------------------------------------|--------------------------------------|
|------------------------------------|--------------------------------------|
|
|  H.                        Q          H                H
|-17------------------------19-------|-20---------------22------------------|
|------------------------------------|--------------------------------------|
|------------------------------------|--------------------------------------|
|------------------------------------|--------------------------------------|
|------------------------------------|--------------------------------------|
|------------------------------------|--------------------------------------|


 Chorus
  Gtrs II, III
  E E  E  E E  E  E E    E  E  E  E  E  E   E  E
|---------------------|--------------------------|
|---------------------|--------------------------|
|---------------------|--------------------------|
|-7-7--7--7-7--7--7-7-|-10-10-10-10-10-10--10-10-|
|-7-7--7--7-7--7--7-7-|-10-10-10-10-10-10--10-10-|
|-5-5--5--5-5--5--5-5-|--8--8--8--8--8--8---8--8-|


   E E  E  E E  E  E E    E E  E  E E  E  E E
|----------------------|----------------------|
|----------------------|----------------------|
|----------------------|----------------------|
|--5-5--5--5-5--5--5-5-|--5S3--3--3-3--3--3-3-|
|--5-5--5--5-5--5--5-5-|--5S3--3--3-3--3--3-3-|
|--3-3--3--3-3--3--3-3-|--3S1--1--1-1--1--1-1-|


   E E  E  E E  E  E E    E  E  E  E  E  E   E  E
|----------------------|--------------------------|
|----------------------|--------------------------|
|----------------------|--------------------------|
|--7-7--7--7-7--7--7-7-|-10-10-10-10-10-10--10-10-|
|--7-7--7--7-7--7--7-7-|-10-10-10-10-10-10--10-10-|
|--5-5--5--5-5--5--5-5-|--8--8--8--8--8--8---8--8-|


   E E  E  E E  E  E E    E E  E  E E  E  E E
|----------------------|----------------------|
|----------------------|----------------------|
|----------------------|----------------------|
|--5-5--5--5-5--5--5-5-|--5S3--3--3-3--3--3-3-|
|--5-5--5--5-5--5--5-5-|--5S3--3--3-3--3--3-3-|
|--3-3--3--3-3--3--3-3-|--3S1--1--1-1--1--1-1-|


   E E  E  E E  E  E E    E  E  E  E  E  E   E  E
|----------------------|--------------------------|
|----------------------|--------------------------|
|----------------------|--------------------------|
|--7-7--7--7-7--7--7-7-|-10-10-10-10-10-10--10-10-|
|--7-7--7--7-7--7--7-7-|-10-10-10-10-10-10--10-10-|
|--5-5--5--5-5--5--5-5-|--8--8--8--8--8--8---8--8-|

   E E  E  E E  E  E E    E E  E  E E  E  E E
|----------------------|----------------------|
|----------------------|----------------------|
|----------------------|----------------------|
|--5-5--5--5-5--5--5-5-|--5S3--3--3-3--3--3-3-|
|--5-5--5--5-5--5--5-5-|--5S3--3--3-3--3--3-3-|
|--3-3--3--3-3--3--3-3-|--3S1--1--1-1--1--1-1-|


   E E  E  E E  E  E E    E  E  E  E  E  E   E  E
|----------------------|--------------------------|
|----------------------|--------------------------|
|----------------------|--------------------------|
|--7-7--7--7-7--7--7-7-|-10-10-10-10-10-10--10-10-|
|--7-7--7--7-7--7--7-7-|-10-10-10-10-10-10--10-10-|
|--5-5--5--5-5--5--5-5-|--8--8--8--8--8--8---8--8-|


   E E  E  E E  E  E E    E E  E  E E  E  E E
|----------------------|----------------------|
|----------------------|----------------------|
|----------------------|----------------------|
|--5-5--5--5-5--5--5-5-|--5S3--3--3-3--3--3-3-|
|--5-5--5--5-5--5--5-5-|--5S3--3--3-3--3--3-3-|
|--3-3--3--3-3--3--3-3-|--3S1--1--1-1--1--1-1-|


 Interlude
  Gtr III
  E E E E  E  E E E   +E  E E E  E  E E E
|-------------------|---------------------|
|-------------------|---------------------|
|-------------------|---------------------|
|-7-7-7-7-10-12---6-|-(6)-6-6-6-10-12---7-|
|-7-7-7-7-10-12---6-|-(6)-6-6-6-10-12---7-|
|-5-5-5-5--8-10-0-4-|-(4)-4-4-4--8-10-0-5-|
|
| Gtr II
| W                    W
|-------------------|---------------------|
|-------------------|---------------------|
|-------------------|---------------------|
|-------------------|---------------------|
|-------------------|---------------------|
|-------------------|---------------------|


  E E E E  E  E E E   +E  E E E E E E E
|-------------------|-------------------|
|-------------------|-------------------|
|-------------------|-------------------|
|-7-7-7-7-12-10---5-|-(5)-5-5-5-5-5-5-5-|
|-7-7-7-7-12-10---3-|-(3)-3-3-3-3-3-3-3-|
|-5-5-5-5-10--8-0-1-|-(1)-1-1-1-1-1-1-1-|
|
| W                    W
|-------------------|-------------------|
|-------------------|-------------------|
|-------------------|-------------------|
|-------------------|-------------------|
|-------------------|-------------------|
|-------------------|-------------------|


  E E E E  E  E E E   +E  E E E  E  E E   E
|-------------------|-------------------------|
|-------------------|-------------------------|
|-------------------|-------------------------|
|-7-7-7-7-10-12---6-|-(6)-6-6-6-10-12-----7---|
|-7-7-7-7-10-12---6-|-(6)-6-6-6-10-12-----7---|
|-5-5-5-5--8-10-0-4-|-(4)-4-4-4--8-10-0---5---|
|
| E E E E  E  E E E   +E  E E E  E  E S S S S
|-5---5----3--5-3-2-|-(2)-2-5-2--1--3---------|
|---5---5-----------|-----------------1s3-1s3-|
|-------------------|-------------------------|
|-------------------|-------------------------|
|-------------------|-------------------------|
|-------------------|-------------------------|


  E E   E E  E  E E E   +E  E E E E E E   E
|---------------------|------------------------|
|---------------------|------------------------|
|---------------------|------------------------|
|-7-7---7-7-12-10---5-|-(5)-5-5-5-5-5-5---5----|
|-7-7---7-7-12-10---3-|-(3)-3-3-3-3-3-3---3----|
|-5-5---5-5-10--8-0-1-|-(1)-1-1-1-1-1-1---1----|
|
| E S S E E  E  E E E   +E  E E E E E S S S S
|-5-----5----3--5-3-2-|-(2)-2-5-2-1-3----------|
|---5-5---5-----------|---------------1s3-1s3--|
|---------------------|------------------------|
|---------------------|------------------------|
|---------------------|------------------------|
|---------------------|------------------------|


  E E E E  E  E E E   +E  E E E  E  E E   E
|-------------------|-------------------------|
|-------------------|-------------------------|
|-------------------|-------------------------|
|-7-7-7-7-10-12---6-|-(6)-6-6-6-10-12-----7---|
|-7-7-7-7-10-12---6-|-(6)-6-6-6-10-12-----7---|
|-5-5-5-5--8-10-0-4-|-(4)-4-4-4--8-10-0---5---|
|
| E E E E  E  E E E   +E  E E E  E  E S S S S
|-5---5----3--5-3-2-|-(2)-2-5-2--1--3---------|
|---5---5-----------|-----------------1s3-1s3-|
|-------------------|-------------------------|
|-------------------|-------------------------|
|-------------------|-------------------------|
|-------------------|-------------------------|


  E E   E E  E  E E E   +E  E E E E E E   E
|---------------------|------------------------|
|---------------------|------------------------|
|---------------------|------------------------|
|-7-7---7-7-12-10---5-|-(5)-5-5-5-5-5-5---5----|
|-7-7---7-7-12-10---3-|-(3)-3-3-3-3-3-3---3----|
|-5-5---5-5-10--8-0-1-|-(1)-1-1-1-1-1-1---1----|
|
| E S S E E  E  E E E   +E  E E E E E S S S S
|-5-----5----3--5-3-2-|-(2)-2-5-2-1-3----------|
|---5-5---5-----------|---------------1s3-1s3--|
|---------------------|------------------------|
|---------------------|------------------------|
|---------------------|------------------------|
|---------------------|------------------------|


 Guitar Break
| Gtr II
| S S +Q.       +H          +W
|-------------------------|-------------------|
|-1s5-(5)-------(5)-------|-(5)---------------|
|-------------------------|-------------------|
|-------------------------|-------------------|
|-------------------------|-------------------|
|-------------------------|-------------------|

| +W                  +W
|-------------------|--------------------|
|-(5)---------------|-(5)----------------|
|-------------------|--------------------|
|-------------------|--------------------|
|-------------------|--------------------|
|-------------------|--------------------|


  Gtrs II, III
   E E  E  E E  E  E E    E  E  E  E  E  E   E  E
|----------------------|--------------------------|
|----------------------|--------------------------|
|----------------------|--------------------------|
|--7-7--7--7-7--7--7-7-|-10-10-10-10-10-10--10-10-|
|--7-7--7--7-7--7--7-7-|-10-10-10-10-10-10--10-10-|
|--5-5--5--5-5--5--5-5-|--8--8--8--8--8--8---8--8-|


   E  E  E  E  E  E   E  E    E E  E  E E  E  E E
|--------------------------|----------------------|
|--------------------------|----------------------|
|--------------------------|----------------------|
|--------------------------|--3-3--3--3-3--3--3-3-|
|--9--9--9--9--9--9---9--9-|--3-3--3--3-3--3--3-3-|
|-10-10-10-10-10-10--10-10-|--1-1--1--1-1--1--1-1-|


   Out-Chorus
    Gtr III
     E E  E  E E  E   E  E     E  E  E  E  E  E    E  E
||--------------------------|----------------------------|
||o-------------------------|----------------------------|
||--------------------------|----------------------------|
||---7-7--7--7-7--7---7--7--|-10-10-10-10-10-10---10-10--|
||o--7-7--7--7-7--7---7--7--|-10-10-10-10-10-10---10-10--|
||---5-5--5--5-5--5---5--5--|--8--8--8--8--8--8----8--8--|
|
|   Gtr II
|    Q    E  Q    Q     +E     Q     E  Q     Q      +E
||--------------------------|----------------------------|
||o-------------------------|----------------------------|
||---2----0--2----4b5r==(4)-|--2-----0--2-----4b5r===(4)-|
||--------------------------|----------------------------|
||o-------------------------|----------------------------|
||--------------------------|----------------------------|


   E E  E  E E  E   E  E     E E  E  E E  E   E E
|-------------------------|-------------------------||
|-------------------------|------------------------o||
|-------------------------|-------------------------||
|--5-5--5--5-5--5---5--5--|--5S3--3--3-3--3---3-3---||
|--5-5--5--5-5--5---5--5--|--5S3--3--3-3--3---3-3--o||
|--3-3--3--3-3--3---3--3--|--3S1--1--1-1--1---1-1---||
|
|  Q    E  Q    Q     +E     Q    E  Q    Q.
|-------------------------|-------------------------||
|-------------------------|------------------------o||
|--2----0--2----4b5r==(4)-|--2----0--2----7b9-------||
|-------------------------|-------------------------||
|-------------------------|------------------------o||
|-------------------------|-------------------------||


   E   E  E  E E  E  E E    E    E  E  E  E  E   E  E
|------------------------|----------------------------|
|------------------------|----------------------------|
|------------------------|----------------------------|
|--7---7--7--7-7--7--7-7-|-10---10-10-10-10-10--10-10-|
|--7---7--7--7-7--7--7-7-|-10---10-10-10-10-10--10-10-|
|--5---5--5--5-5--5--5-5-|--8----8--8--8--8--8---8--8-|
|
|  Q      E  Q    Q.        Q       E  Q     Q.
|------------------------|----------------------------|
|------------------------|----------------------------|
|--4b5r===4--2----0------|--4b5r====4--2-----0--------|
|------------------------|----------------------------|
|------------------------|----------------------------|
|------------------------|----------------------------|


   E   E  E  E E  E  E E    E   E  E  E E  E  E E
|------------------------|------------------------|
|------------------------|------------------------|
|------------------------|------------------------|
|--5---5--5--5-5--5--5-5-|--5S==3--3--3-3--3--3-3-|
|--5---5--5--5-5--5--5-5-|--5S==3--3--3-3--3--3-3-|
|--3---3--3--3-3--3--3-3-|--3S==1--1--1-1--1--1-1-|
|
|  Q      E  Q    Q.        Q      E  Q    Q.
|------------------------|------------------------|
|------------------------|------------------------|
|--4b5r===4--2----0------|--4b5r===4--2----0------|
|------------------------|------------------------|
|------------------------|------------------------|
|------------------------|------------------------|


   E   E  E  E E  E  E E    E    E  E  E  E  E   E  E
|------------------------|----------------------------|
|------------------------|----------------------------|
|------------------------|----------------------------|
|--7---7--7--7-7--7--7-7-|-10---10-10-10-10-10--10-10-|
|--7---7--7--7-7--7--7-7-|-10---10-10-10-10-10--10-10-|
|--5---5--5--5-5--5--5-5-|--8----8--8--8--8--8---8--8-|
|
|  Q      E  Q    Q.        Q       E  Q     Q.
|------------------------|----------------------------|
|------------------------|----------------------------|
|--4b5r===4--2----0------|--4b5r====4--2-----0--------|
|------------------------|----------------------------|
|------------------------|----------------------------|
|------------------------|----------------------------|


   E   E  E  E E  E  E E    E   E  E  E E  E  E E
|------------------------|------------------------|
|------------------------|------------------------|
|------------------------|------------------------|
|--5---5--5--5-5--5--5-5-|--5S==3--3--3-3--3--3-3-|
|--5---5--5--5-5--5--5-5-|--5S==3--3--3-3--3--3-3-|
|--3---3--3--3-3--3--3-3-|--3S==1--1--1-1--1--1-1-|
|
|  Q      E  Q    Q.        Q      E  Q    Q.
|------------------------|------------------------|
|------------------------|------------------------|
|--4b5r===4--2----0------|--4b5r===4--2----0------|
|------------------------|------------------------|
|------------------------|------------------------|
|------------------------|------------------------|


   W                 +W                 +W                 +W
|-----------------|------------------|------------------|------------------|
|-----------------|------------------|------------------|------------------|
|-----------------|------------------|------------------|------------------|
|--7--------------|--(7)-------------|--(7)-------------|--(7)-------------|
|--7--------------|--(7)-------------|--(7)-------------|--(7)-------------|
|--5--------------|--(5)-------------|--(5)-------------|--(5)-------------|
|
|  Q    E Q  Q.       Q    E Q  Q.       Q    E Q  Q.       Q    E Q  Q.
|-----------------|------------------|------------------|------------------|
|-----------------|------------------|------------------|------------------|
|--4b5r=4-2--0----|---4b5r=4-2--0----|---4b5r=4-2--0----|---4b5r=4-2--0----|
|-----------------|------------------|------------------|------------------|
|-----------------|------------------|------------------|------------------|
|-----------------|------------------|------------------|------------------|


   +W                 +W                 +W                 +W
|------------------|------------------|------------------|---------*|
|------------------|------------------|------------------|---------*|
|------------------|------------------|------------------|---------*|
|--(7)-------------|--(7)-------------|--(7)-------------|--(7)----*|
|--(7)-------------|--(7)-------------|--(7)-------------|--(7)----*|
|--(5)-------------|--(5)-------------|--(5)-------------|--(5)----*|
|
|   Q    E Q  Q.       Q    E Q  Q.       Q    E Q  Q.      +W
|------------------|------------------|------------------|---------*|
|------------------|------------------|------------------|---------*|
|---4b5r=4-2--0----|---4b5r=4-2--0----|---4b5r=4-2--0----|--(0)----*|
|------------------|------------------|------------------|---------*|
|------------------|------------------|------------------|---------*|
|------------------|------------------|------------------|---------*|


Duration Legend
---------------
W - whole; H - half; Q - quarter; E - 8th; S - 16th; T - 32nd; X - 64th; a - acciaccatura
+ - note tied to previous; . - note dotted; .. - note double dotted
Uncapitalized letters represent notes that are staccato (1/2 duration)
Irregular groupings are notated above the duration line
Duration letters will always appear directly above the note/fret number it represents the
duration for.  Duration letters with no fret number below them represent rests.  Multi-
bar rests are notated in the form Wxn, where n is the number of bars to rest for.  Low
melody durations appear below the staff

Tablature Legend
----------------
 h   - hammer-on
 p   - pull-off
 b   - bend
 pb  - pre-bend
 r   - bend release (if no number after the r, then release immediately)
 /\  - slide into or out of (from/to "nowhere")
 s   - legato slide
 S   - shift slide
  - natural harmonic
[n]  - artificial harmonic
n(n) - tapped harmonic
 ~   - vibrato
 tr  - trill
 T   - tap
 TP  - trem. picking
 PM  - palm muting
\n/  - tremolo bar dip; n = amount to dip
 \n  - tremolo bar down
 n/  - tremolo bar up
/n\  - tremolo bar inverted dip
 =   - hold bend; also acts as connecting device for hammers/pulls
 <>  - volume swell (louder/softer)
 x   - on rhythm slash represents muted slash
 o   - on rhythm slash represents single note slash

Misc Legend
-----------
 |  - bar
||  - double bar
||o - repeat start
o|| - repeat end
*|  - double bar (ending)
 :  - bar (freetime)
 $  - Segno
 &  - Coda
Tempo markers -  = BPM(8/16=s8/s16), where s8 = swing 8ths, s16 = swing 16ths

            
            
Suggest correction
Creating personal tab
Creating personal tab
You can edit any tab online and save it as your Personal.

You can edit, replace or remove any tab part or add personal notes – all changes will be seen only by you.

Personal tabs can be accessed anytime from any device, even offline.
Learn more »
comments
print report bad tab
4 comments total. Showing first comments.
0 reply
bloodred16 801 Jan 03, 2006 09:27 AM

wow this tab is awesome!!!

-1 reply
metaljunkie22 182 Jan 09, 2006 02:59 PM

u need to put the solos in it

0 reply
likeghostinsnow 10 Jul 22, 2007 08:24 PM

FINALLY! something that is right. 5* good job.

guest
You may want to rate the tab now too:
select rating
Wanna post a correction for this tab? Suggest correction