Oops, an error
Loading. Please wait.

Disassociative Tab

version 1
version 1

Whole song

Interactive

13,120 views 87 this week
no commentswrite comment
1 2 3 4 5
x 5
add to favorites
launch autoscroll
font size
0
reset
how to read this tab
guitar tuner
×
Best way to learn
"Disassociative"
Autoscroll
slow
fast
+/-
esc
set tempo
stop
--{*Disassociative*}--
----------------------
As performed by Marilyn Manson on Mechanical Animals
Transcribed by Matt Norse (mlnorse@yahoo.com)

Forgive the lack of time representation as this is my
first time tabbing anything and I am using a text
editor, not a tabbing program. This should give you a
good start though.

 Intro and Chorus riff:
e|------0-------------------------------------|
B|--------0-----3-1-----------0---------------|
G|------------2-------------0-------0---4-----|
D|----2-----0-------------0-------0-----4--7*-|
A|--0-------------------2-------3-------2--7*-|
E|-----------------------------------------5*-|

--------------------------------------------------------------------------------
*You can also use this chord which is more convenient
since the rest of the riff is played in the same part
of the guitar, but for some reason I find it easier to
play on the bottom 3 strings:

e|----|
B|----|
G|--2-|
D|--2-|
A|--0-|
E|----|
--------------------------------------------------------------------------

 I can tell you what they say in space that our earth
 is too gray...
 (That first part of Chorus has no guitar.)
 But when the spirit is so digital...
e|------0-------------------------------------|
B|--------0-----3-1-----------0---------------|
G|------------2-------------0-------0---4-----|
D|----2-----0-------------0-------0-----4--7*-|
A|--0-------------------2-------3-------2--7*-|
E|-----------------------------------------5*-|

 The nervous system's down...
e|-------------------------------------|
B|-------------------------------------|
G|--44444444---------------------------|
D|--44444444-77777777-5555555555555555-|
A|--22222222-77777777-5555555555555555-|
E|-----------55555555-3333333333333333-|

 I can never get out of here...
e|--------------------------------------|
B|--------------------------------------|
G|--------------------55555555----------|
D|--33333333-77777777-55555555-77777777-|
A|--33333333-77777777-33333333-77777777-|
E|--11111111-55555555----------55555555-|

 Sometimes we walk like we were shot through our heads
 my love...
 (Again no guitar for the first part.)
 We write a song in space like we're...
e|------0-------------------------------------|
B|--------0-----3-1-----------0---------------|
G|------------2-------------0-------0---4-----|
D|----2-----0-------------0-------0-----4--7*-|
A|--0-------------------2-------3-------2--7*-|
E|-----------------------------------------5*-|

 I can never get out of here...
e|--------------------------------------|
B|--------------------------------------|
G|--------------------55555555----------|
D|--33333333-77777777-55555555-77777777-|
A|--33333333-77777777-33333333-77777777-|
E|--11111111-55555555----------55555555-|

 The nervous system's down... (this isn't any
 discernable guitar this time, but I play this, which
 roughly follows the bass line)
e|--------------------------------------|
B|--------------------------------------|
G|--44444444----------44444444----------|
D|--44444444-22222222-44444444-44444444-|
A|--22222222-22222222-22222222-44444444-|
E|-----------00000000----------22222222-|

 Then back to this riff for the rest of the song...
e|--------------------------------------|
B|--------------------------------------|
G|--------------------55555555----------|
D|--33333333-77777777-55555555-77777777-|
A|--33333333-77777777-33333333-77777777-|
E|--11111111-55555555----------55555555-|

This is my first try at tabbing, so if you use this
file, PLEASE PLEASE PLEASE take just a sec to send me
a quick comment, or any corrections or suggestions.
Thanks! :)
Suggest correction
comments
print report bad tab
guest
You may want to rate the tab now too:
select rating
Wanna post a correction for this tab? Suggest correction