Oops, an error
Loading. Please wait.

Disassociative Tab

version 1
version 1

Whole song

Interactive

20,119 views 33 this week
3 commentsread comments
1 2 3 4 5
x 9
add to favorites
launch autoscroll
font size
0
reset
how to read this tab
guitar tuner
Autoscroll
slow
fast
+/-
esc
set tempo
stop
Help us to improve Ultimate-Guitar.com Take our survey!
×
Disassociative by Marilyn Manson
Guitarist: Twiggy Ramirez + Zim Zum
Album: Mechanical Animals
Dif.: 6
Tabbed by TWIGGy5

NOTE: * = strum 8x

Intro/Verse (clean w/ tremelo)
E|------0------------0------------------------------|
B|--------0--------3-1----------0-------------------|
G|-------------------0--------0--------0--3/5--2-2--|
D|---2----------4----2------0--------2----3/5--2-2--|
A|-0--------3/5------3----2--------3------1/2--0-0--|

Pre-Chorus (Synth. Arr for Gtr. 4)
B|--12----10----8------------7---|

Chorus (Gtr. 1 w/ dist.)
D|-3*-7*-10*-7*-|-3*-7*-10*-----|
A|-3*-7*-10*-7*-|-3*-7*-10*-----|
E|-1*-5*--8*-5*-|-1*-5*--8*-----|

Post-Chorus (Gtr. 2 w/ light distortion)
G|----5p4h5-----5---5--|
D|--4-------4p3---2----|

Chorus 3 (Gtr. 3 clean w/ tremelo)
E|-----0-------0-------0-------0----|
B|-------0-------0-------0-------0--|
D|-----------2-------5-------2------|
A|---3-----0-------3-------0--------|
E|-1--------------------------------|

Solo Type Thingy (Gtr. 2 w/ dist.)
e|-8^---5----10^--7--8--5--|

Song Structure: -
Effects
Intro
Rest For Bass Verse Shit (“I can tell you…..”)
Verse (“But when the spirit…..”)
Pre-Chorus (Gtr. 4) (“The nervous systems…..”)
Chorus (“I can never get out……”)
Post-Chorus
Rest For Verse (“Sometimes we walk……”)
Verse (“We’ll write a song…”)
Chorus
Rest For Bass Bridge/Solo Type Thing A Ma Jig
Chorus (Gtr. 1)/Chorus 3 (Gtr. 3)/ Solo Type Thingy (Gtr. 2)
Chorus (Gtr. 1)/Chorus 3 (Gtr. 3)
Let last chord ring on chorus guitar 1 and just let feedback

Okay there you go. Nice horse tranquilizer song. Ha ha ha ha. Any comments, 
corrections or suggestions email me at toxic345x@yahoo.ca
===========Song:Disassociative
Album:Mechanical Animals
Artist:MAR1LYN MAN5ON
TAbbed:Jose O. HErnandez Loyola

Intro & Verse(Clean)

E|-----0----------------------------------|
B|------0----------------0----------------|
G|----------------------0----0------------|
D|-----------12-10~----0----0----4--------|
A|---7-----12---10~---2----3-----2--7-7~--|
E|-5------9------8~-----------------5-5~--|
 
Bridge (Distortion)

E|--------------------------------|
B|--------------------------------|
G|--------------------------------|
D|--99999999-77777777-22222222~~--|
A|--99999999-77777777-22222222~~--|
E|--77777777-55555555-00000000~~--|

Keyboard

E|--19~~~--17~~~--13~~-14~~-----|
B|------------------------------|
G|------------------------------|
D|------------------------------|
A|------------------------------|
E|------------------------------|

Chorus (Distortion)

E|-----------------------------------------------------------------|
B|-----------------------------------------------------------------|
G|-----------------------------------------------------------------|
D|-3-3-3-3-3-3-3/7-7-7-7-7-7-7/10-10-10-10-10-10-107-7-7-7-7-7-7--|
A|-3-3-3-3-3-3-3/7-7-7-7-7-7-7/10-10-10-10-10-10-107-7-7-7-7-7-7--|
E|-1-1-1-1-1-1-1/5-5-5-5-5-5-5/-8--8--8--8--8--8--85-5-5-5-5-5-5--|

Interlude (Distortion)

E|---------------------------|
B|---------------------------|
G|----5---5---4---5---4---4--|
D|---------------------------|
A|--5---5---5---5---5---5----|
E|---------------------------|

2nd Bridge (Distortion)

E|---------------------------------------------------------------------------|
B|---------------------------------------------------------------------------|
G|---------------------------------------------------------------------------|
D|--9-9-9-9-9-9-9-9-14-14-14-14-14-14-14-14-7-7-7-7-7-7-7-7-3-3-3-3-3-3-3-3--|
A|--9-9-9-9-9-9-9-9-14-14-14-14-14-14-14-14-7-7-7-7-7-7-7-7-3-3-3-3-3-3-3-3--|
E|--7-7-7-7-7-7-7-7-12-12-12-12-12-12-12-12-5-5-5-5-5-5-5-5-1-1-1-1-1-1-1-1--|

Keyboard

E|--19^~~~20^~~~21^~~~19^~~~20^~-17~~~~----19^~~~20^~~~21~~~--22^~~-23^~~~--|
B|---------------------------------------------------------------------------|
G|---------------------------------------------------------------------------|
D|---------------------------------------------------------------------------|
A|---------------------------------------------------------------------------|
E|---------------------------------------------------------------------------|

Intro - x2
Verse - x2
Bridge - x2
Chorus - x2
Interlude - x1
Verse - x3
Chorus - x2
2nd Bridge - x2
Chorus - x2 w/First section of the Intro - x8
Chrous - x2
First section of the intro - x1

===

Poczatek
e---0-------------------------------------------------
B----0---3-1--------------0---------------------------
G------2-2-2-------------0--------0-------------------
D--2---0----------------0--------0------4-2-2---------
A-0--------------------2--------3-------2-0-0---------
E-----------------------------------------------------

The nervous systems down.......
e-------------------------------------------------------
B-------------------------------------------------------
G-4-----------------------------------------------------
D-4----7----5----2--------------------------------------
A-2----7----5----2--------------------------------------
E------5----3----0--------------------------------------


Chorus A Guitar 1 (I can never get out of here...)
e-------------------------------------------------------
B-------------------------------------------------------
G-------------------------------------------------------
D-3--7---10--7------------------------------------------
A-3--7---10--7------------------------------------------
E-1--5---8---5------------------------------------------


e----0------0-------0------0--------------------------------
B-----0------0-------0------0-------------------------------
G-----------------------------------------------------------
D--2-------2-------2------2---------------------------------
A---------0-------3-----------------------------------------
E-1----------------------0----------------------------------

Post-Chorus
e-------------------------------------------------------
B-------------------------------------------------------
G-------------------------------------------------------
D-9--2--7--5--------------------------------------------
A-9--2--7--5--------------------------------------------
E-7--0--5--3--------------------------------------------

Jakies pytania? (any questions??? ;)
cheops@poczta.fm


=================

DISASSOSIATIVE - marilyn manson MECHANICAL ANIMAL5 - tabbed by jonden@ix.netcom.com

intro (with tremolo)
E--------------------------------------------
B------5-------------------------------------
G--------6--------------------8--------------
D--------------12-10--------9------10-9-7-7--
A----7-------12---10------9------10---9-7-7--
E--5-------10----- 8----7-------8-----7-5-5--

the nervous systems down 1
-----------------------------------------
-----------------------------------------
-----------------------------------------
-5-5-5-5-5-3-3-3-3-3-1-1-1-1-1-1-1-1-1-1-
-5-5-5-5-5-3-3-3-3-3-1-1-1-1-1-1-1-1-1-1-
-7-7-7-7-7-5-5-5-5-5-3-3-3-3-3-3-3-3-3-3-

chorus
-----------------------------------------
-----------------------------------------
-----------------------------------------
-10-10-10-10-10-10-10-10-7-7-7-7-7-7-7-7-
-10-10-10-10-10-10-10-10-7-7-7-7-7-7-7-7-
- 8- 8- 8- 8- 8- 8- 8- 8-5-5-5-5-5-5-5-5-

nervous systems down 2
-------------------------------------------------------------------------
-------------------------------------------------------------------------
-------------------------------------------------------------------------
-9-9-9-9-9-9-9-9-14-14-14-14-14-14-14-14-7-7-7-7-7-7-7-7-3-3-3-3-3-3-3-3-
-9-9-9-9-9-9-9-9-14-14-14-14-14-14-14-14-7-7-7-7-7-7-7-7-3-3-3-3-3-3-3-3-
-7-7-7-7-7-7-7-7-12-12-12-12-12-12-12-12-5-5-5-5-5-5-5-5-1-1-1-1-1-1-1-1-
Suggest correction
comments
print report bad tab
3 comments total.
0 reply
pill2comawhite 240 Nov 08, 2003 12:00 AM

kick ass job on this tab

0 reply
mtlca20891 10 Jan 06, 2008 09:58 PM

it would be easier to read if u included all of the strings other than that its perfect

0 reply
Bioquant 10 Mar 01, 2009 06:45 PM

um.... right
are you kidding!?!?!!??
Move the E to the A and forget it in the intro/verse
then its close..... its sooooo easy.

guest
You may want to rate the tab now too:
select rating
Wanna post a correction for this tab? Suggest correction