Oops, an error
Loading. Please wait.

Dope Hat tab

version 3
version 3

Whole song

Interactive

4,614 views 18 this week
no commentswrite comment
1 2 3 4 5
2 more votes to show rating
add to favorites
×
Save as Personal and add changes to this tab that will be seen only by you. Learn more ›
×
You can save this tab as Personal to edit and correct it or add notes. All changes will be seen only by you. Learn more »
launch autoscroll
font size
0
reset
how to read this tab
guitar tuner
edit
Autoscroll
slow
fast
+/-
esc
set tempo
stop
Author
Difficulty
-------------------------------------------------------------------------------
                             DOPE HAT-Marilyn Manson
-------------------------------------------------------------------------------
Tabbed by: ironmanben
Email: bentrooper@gmail.com

Tuning: e B G D A E

e|----|-------------------------------------------------------------|
B|----|-------------------------------------------------------------|
G|----|----------------------555-444----------------------555-444---|
D|----|-444444-777777-444444-555-444-444444-777777-444444-555-444-4-|
A|----|-444444-777777-444444-333-222-444444-777777-444444-333-222-4-|
E|-1/-|-222222-555555-222222---------222222-555555-222222---------2-|

guitar solo 1
e|-----------------------14\\-12~--------12~-----------|
B|-------------------------------12~-10~----12~-10-12^-|
G|-------------//12-14\\-------------9~---------9------|
D|-----------------------------------------------------|
A|-----------------------------------------------------|
E|-14\\\2///14-----------------------------------------|

verse x2
e|-------------------|
B|-------------------|
G|-------------------|
D|-----6-6-5-5-4---4-|
A|-4-4-4-4-3-3-2p0-2-|
E|-2-2---------------|

bass fill (solos/verse)
G|---------------------|
D|---------------------|
A|-----4-4-3-3-2p0-2p0-|
E|-2-2-----------------|

guitar solo 2 (play verse under x4)
e|--------------------------------------------------------------------------|
B|-------13-1313-1313-13\---------------9^(10)-9^(10)-9^(10)9-----5---------|
G|----11------------------11-9-99-10-11------------------------5^---5^-4----|
D|-11-----------------------------------------------------------------------|
A|--------------------------------------------------------------------------|
E|--------------------------------------------------------------------------|

e|--------------------------|
B|-2p0-2p0-2p0-2p0-2-2-2-2~-|
G|--------------------------|
D|--------------------------|
A|--------------------------|
E|--------------------------|

verse x8

x2
e|-------------|
B|-------------|
G|-------------|
D|-------------|
A|-9~----------|
E|----------2~-|

riff 1
e|-----------------------------------------------------------|
B|-----------------------------------------------------------|
G|----------------------555-444----------------------555-444-|
D|-444444-777777-444444-555-444-444444-777777-444444-555-444-|
A|-444444-777777-444444-333-222-444444-777777-444444-333-222-|
E|-222222-555555-222222---------222222-555555-222222---------|

bridge 1
e|---------------------------------------------------------------------|
B|---------------------------------------------------------------------|
G|-9-9-9-9----------9-9-9-9----------11111111-7-7-7-7-11111111-7-7-7-7-|
D|-9-9-9-9-10101010-9-9-9-9-10101010-11111111-7-7-7-7-11111111-7-7-7-7-|
A|-7-7-7-7-10101010-7-7-7-7-10101010-9-9-9-9--5-5-5-5-9-9-9-9--5-5-5-5-|
E|---------8-8-8-8----------8-8-8-8------------------------------------|

bridge 2
e|---------------------------------------|
B|---------------------------------------|
G|-111111-101010-999-888-777-666-555-444-|
D|-x-x-x--x-x-x--xxx-xxx-xxx-xxx-xxx-xxx-|
A|-9-9-9--8-8-8--777-666-555-444-333-222-|
E|---------------------------------------|

e|----------------------------------------|
B|-4+4+4+4+4+4+4+4+4+4+4+4+4+4+4+4+4+4+~~-|
G|----------------------------------------|
D|----------------------------------------|
A|----------------------------------------|
E|----------------------------------------|

verse 2 x11
e|-----------------------------|
B|-----------------------------|
G|-----------------------------|
D|-----------------------------|
A|-------4+-4+-3+-3+-2+p0-2+p0-|
E|-2+-2+-----------------------|

guitar solo 3 (verse played under x5)
e|--------------------------------------------------------------------------|
B|--------------------------------------------------------------------------|
G|----------------------------------9^----9^-11-9-11-9^-9^-11-11-9-----9----|
D|-------------------------9^-10-11----11--------------------------11^---11-|
A|-9-9-9999-12-12-12121212--------------------------------------------------|
E|--------------------------------------------------------------------------|

e|-----------------------------------------------------------|
B|---------------------------------------10-------------9^^^-|
G|-999-11p9-999-11p9-999-11p9-999--------------------11------|
D|--------------------------------10(11)----11111111---------|
A|-----------------------------------------------------------|
E|-----------------------------------------------------------|

riff 1 x 1
bridge 1 x2
bridge 2 x1

e|----|
B|----|
G|-11-|
D|-11-|
A|-9--|
E|----|

| /  slide up
| \  slide down
| h  hammer-on
| p  pull-off
| ~  vibrato
| +  harmonic
| x  Mute note
===============================================================================
Suggest correction
Creating personal tab
Creating personal tab
You can edit any tab online and save it as your Personal.

You can edit, replace or remove any tab part or add personal notes – all changes will be seen only by you.

Personal tabs can be accessed anytime from any device, even offline.
Learn more »
Give kudos to tab author, rate the tab!
1 2 3 4 5
comments
print report bad tab
guest
You may want to rate the tab now too:
select rating
Wanna post a correction for this tab? Suggest correction