Oops, an error
Loading. Please wait.

Evidence bass

version 1
version 1

Whole song

Interactive

3,703 views 1 this week
no commentswrite comment
1 2 3 4 5
x 3
add to favorites
×
Save as Personal and add changes to this tab that will be seen only by you. Learn more ›
×
You can save this tab as Personal to edit and correct it or add notes. All changes will be seen only by you. Learn more »
launch autoscroll
font size
0
reset
guitar tuner
edit
Autoscroll
slow
fast
+/-
esc
set tempo
stop
Author
Difficulty
----------------------------------------------------------------------------
			EVIDENCE - Marilyn Manson
----------------------------------------------------------------------------

Tabbed By : Michael Hylands (mhylands)
e-mail: mhylands@hotmail.com

Tuning: Standard [EADG]

This song is basically the repeat of the same riff over and over with a few slides at 
end of a chorus and the slight change at the end of the riff during the "bass solo."

REST DURING INTRO

VERSE
G|----------------|----------------|----------------|----------------|
D|----------------|----------------|----------------|----------------|
A|----------------|----------------|----------------|----------------|
E|7-7-7-7-7-7-7-7-|7-7-7-7-9-9-1010|5-5-5-5-5-5-5-5-|5-5-5-5-7-7-5-5-|

G|----------------|----------------|----------------|----------------|
D|----------------|----------------|----------------|----------------|
A|----------------|----------------|----------------|----------------|
E|3-3-3-3-3-3-0-0-|0-0-0-0-5---5---|7-7-7-7-7-7-5-5-|5-5-5-5-5-5-5-5-|

G|----------------|----------------|----------------|----------------|
D|----------------|----------------|----------------|----------------|
A|----------------|----------------|----------------|----------------|
E|7-7-7-7-7-7-7-7-|7-7-7-7-9-9-1010|5-5-5-5-5-5-5-5-|5-5-5-5-7-7-5-5-|

G|----------------|----------------|----------------|----------------|
D|----------------|----------------|----------------|----------------|
A|----------------|----------------|----------------|----------------|
E|3-3-3-3-3-3-0-0-|0-0-0-0-5---5---|7-7-7-7-7-7-5-5-|5-5-5-5-5-5-5-5-|

G|----------------|----------------|----------------|----------------|
D|----------------|----------------|----------------|----------------|
A|----------------|----------------|----------------|----------------|
E|7-7-7-7-7-7-7-7-|7-7-7-7-9-9-1010|5-5-5-5-5-5-5-5-|5-5-5-5-7-7-5-5-|

G|----------------|----------------|----------------|----------------|
D|----------------|----------------|----------------|----------------|
A|----------------|----------------|----------------|----------------|
E|3-3-3-3-3-3-0-0-|0-0-0-0-5---5---|7-7-7-7-7-7-5-5-|5-5-5-5-5-5-5-5-|

G|----------------|----------------|----------------|----------------|
D|----------------|----------------|----------------|----------------|
A|----------------|----------------|----------------|----------------|
E|7-7-7-7-7-7-7-7-|7-7-7-7-9-9-1010|5-5-5-5-5-5-5-5-|5-5-5-5-7-7-5-5-|

G|----------------|----------------|----------------|----------------|
D|----------------|----------------|----------------|----------------|
A|----------------|----------------|----------------|----------------|
E|3-3-3-3-3-3-0-0-|0-0-0-0-5---5---|7-7-7-7-7-7-5-5-|5-5-5-5-5-5-5-5-|

G|----------------|
D|----------------|
A|----------------|
E|7/--------------|

G|----------------|----------------|----------------|----------------|
D|----------------|----------------|----------------|----------------|
A|----------------|----------------|----------------|----------------|
E|7-7-7-7-7-7-7-7-|7-7-7-7-9-9-1010|5-5-5-5-5-5-5-5-|5-5-5-5-7-7-5-5-|

G|----------------|----------------|----------------|----------------|
D|----------------|----------------|----------------|----------------|
A|----------------|----------------|----------------|----------------|
E|3-3-3-3-3-3-0-0-|0-0-0-0-5---5---|7-7-7-7-7-7-5-5-|5-5-5-5-5-5-5-5-|

G|----------------|----------------|----------------|----------------|
D|----------------|----------------|----------------|----------------|
A|----------------|----------------|----------------|----------------|
E|7-7-7-7-7-7-7-7-|7-7-7-7-9-9-1010|5-5-5-5-5-5-5-5-|5-5-5-5-7-7-5-5-|

G|----------------|----------------|----------------|----------------|
D|----------------|----------------|----------------|----------------|
A|----------------|----------------|----------------|----------------|
E|3-3-3-3-3-3-0-0-|0-0-0-0-5---5---|7-7-7-7-7-7-5-5-|5-5-5-5-5-5-5-5-|

G|----------------|
D|----------------|
A|----------------|
E|7/--------------|

SOLO
G|----------------|----------------|----------------|----------------|
D|----------------|----------------|----------------|----------------|
A|----------------|----------------|----------------|----------------|
E|7-7-7-7-7-7-7-7-|7-7-7-7-9-9-1010|5-5-5-5-5-5-5-5-|5-5-5-5-7-7-5-5-|

G|----------------|----------------|----------------|----------------|
D|----------------|----------------|----------------|----------------|
A|----------------|----------------|----------------|----------------|
E|3-3-3-3-3-3-0-0-|0-0-0-0-5---5---|7-7-7-7-7-7-5-5-|5-5-5-5-5-5-5-5-|

G|----------------|----------------|----------------|----------------|
D|----------------|----------------|----------------|----------------|
A|----------------|----------------|----------------|----------------|
E|7-7-7-7-7-7-7-7-|7-7-7-7-9-9-1010|5-5-5-5-5-5-5-5-|5-5-5-5-7-7-5-5-|

G|----------------|----------------|----------------|----------------|
D|----------------|----------------|----------------|----------------|
A|----------------|----------------|----------------|----------------|
E|3-3-3-3-3-3-0-0-|0-0-0-0-5---5---|7-7-7-7-7-7-5-5-|5-5-5-5-5-5-5-5-|

REST

BASS SOLO
G|----------------|----------------|----------------|----------------|
D|----------------|----------------|----------------|----------------|
A|----------------|----------------|----------------|----------------|
E|7-7-7-7-7-7-7-7-|7-7-7-7-9-9-1010|5-5-5-5-5-5-5-5-|5-5-5-5-7-7-5-5-|

G|----------------|----------------|----------------|----------------|
D|----------------|----------------|----------------|----------------|
A|----------------|----------------|----------------|----------------|
E|3-3-3-3-3-3-0-0-|0-0-0-0-5---5---|7-7-7-7-7-7-5-5-|5-5-5-5-5---5---|

REST

VERSE/CHORUS
G|----------------|----------------|----------------|----------------|
D|----------------|----------------|----------------|----------------|
A|----------------|----------------|----------------|----------------|
E|7-7-7-7-7-7-7-7-|7-7-7-7-9-9-1010|5-5-5-5-5-5-5-5-|5-5-5-5-7-7-5-5-|

G|----------------|----------------|----------------|----------------|
D|----------------|----------------|----------------|----------------|
A|----------------|----------------|----------------|----------------|
E|3-3-3-3-3-3-0-0-|0-0-0-0-5---5---|7-7-7-7-7-7-5-5-|5-5-5-5-5-5-5-5-|

G|----------------|----------------|----------------|----------------|
D|----------------|----------------|----------------|----------------|
A|----------------|----------------|----------------|----------------|
E|7-7-7-7-7-7-7-7-|7-7-7-7-9-9-1010|5-5-5-5-5-5-5-5-|5-5-5-5-7-7-5-5-|

G|----------------|----------------|----------------|----------------|
D|----------------|----------------|----------------|----------------|
A|----------------|----------------|----------------|----------------|
E|3-3-3-3-3-3-0-0-|0-0-0-0-5---5---|7-7-7-7-7-7-5-5-|5-5-5-5-5-5-5-5-|


| /  slide up
| \  slide down
| h  hammer-on
| p  pull-off
| ~  vibrato
| +  harmonic
| x  Mute note
============================================================================

            
            
Suggest correction
Creating personal tab
Creating personal tab
You can edit any tab online and save it as your Personal.

You can edit, replace or remove any tab part or add personal notes – all changes will be seen only by you.

Personal tabs can be accessed anytime from any device, even offline.
Learn more »
Give kudos to tab author, rate the tab!
1 2 3 4 5
comments
print report bad tab
guest
You may want to rate the tab now too:
select rating
Wanna post a correction for this tab? Suggest correction