Oops, an error
Loading. Please wait.

Evidence tab

version 2
version 2

Whole song

Interactive

5,832 views 6 this week
2 commentsread comments
1 2 3 4 5
1 last vote to show rating
add to favorites
×
Save as Personal and add changes to this tab that will be seen only by you. Learn more ›
×
You can save this tab as Personal to edit and correct it or add notes. All changes will be seen only by you. Learn more »
launch autoscroll
font size
0
reset
how to read this tab
guitar tuner
edit
Autoscroll
slow
fast
+/-
esc
set tempo
stop
Author
this intro was found out entirely by myself. i do believe the actual intro is 
played on the keyboard tho. but here is the guitar version.

* means play lightly
b means bend to
r means return to
e|-------------------------------------------------------------------|
b|-------------------------------------------------------------------|
g|-4--4*--4*--6-7-6*-7*-6*-7*-6*-7*----------------2--4-2-4*-2*-4*-2*|
d|----------------------------------9-7-5-5*--2-2*-------------------|
a|-------------------------------------------------------------------|
E|-------------------------------------------------------------------|

e|--------------------------------------------------------------------------|
b|--------------------------------------------------------------------------|
g|--------------------------------------------------------------------------|
d|-x-x-999-9-9-9-9-9-9-9-9-9-9-11-12-777-7-7-7-7-7-7-7-7-7-7-9-7-555-5-5-5-5|
a|-x-x-999-9-9-9-9-9-9-9-9-9-9-11-12-777-7-7-7-7-7-7-7-7-7-7-9-7-555-5-5-5-5|
E|-x-x-777-7-7-7-7-7-7-7-7-7-7- 9-10-555-5-5-5-5-5-5-5-5-5-5-7-5-333-3-3-3-3|

e|------------------------------------------------|
b|------------------------------------------------|
g|------------------------------------------------|
d|-2-2-2-2-2-2-7-7-999-9-9-9-9-7-7-7-7-7-7-7-7-7-7| x2
a|-2-2-2-2-2-2-7-7-999-9-9-9-9-7-7-7-7-7-7-7-7-7-7|
E|-0-0-0-0-0-0-5-5-777-7-7-7-7-5-5-5-5-5-5-5-5-5-5|

e|-------------------------------------------|
b|------------------------8---7~--5~~--5-7~-8|
g|---7---6~--4~~-4-6~-7-4---4---4-----4-4--4-|
d|-4---4---4----4-4--------------------------|
a|-------------------------------------------|
E|-------------------------------------------|

e|------------------------------------------------|
b|------------------------------------------------|
g|-6~-4-6~~-4-------------------------------------|
d|------------44-5--------------------------------|
a|----------------7---7~-5--7~~-5----5---5---5----|
E|------------------------7------7-57--7---7---5~~|

e|-------------------------------------14-10----|
b|-------------------------------------------12-|
g|---------7---9~-7--------------11-14----------|
d|----------9~------9-------9-12----------------|
a|-----7-9-------------7-10---------------------|
E|-5-7------------------------------------------|

e|-14--15--17--19--22-21-19~-19-21- 21b22-22-22-22r21-|
b|---12--14--15--17-----------------------------------|
g|----------------------------------------------------|
d|----------------------------------------------------|
a|----------------------------------------------------|
E|----------------------------------------------------|

and the part after this is very unclear. i think it uses some kind of distortion 
but im not exactly sure...
any comments email me at michael.euteneier@yahoo.com!

            
            
Suggest correction
Creating personal tab
Creating personal tab
You can edit any tab online and save it as your Personal.

You can edit, replace or remove any tab part or add personal notes – all changes will be seen only by you.

Personal tabs can be accessed anytime from any device, even offline.
Learn more »
Give kudos to tab author, rate the tab!
1 2 3 4 5
comments
print report bad tab
2 comments total.
0 reply
x-00004 10 Oct 28, 2010 08:34 PM

he uses a wah pedal search it up man nice tab;)

0 reply
blacktide 57 Jan 02, 2011 01:18 PM

thanks man :)

guest
You may want to rate the tab now too:
select rating
Wanna post a correction for this tab? Suggest correction