Oops, an error
Loading. Please wait.

Five To One Tab

version 1
version 1

Whole song

Interactive

2,113 views 3 this week
no commentswrite comment
1 2 3 4 5
excellent!
x 1
add to favorites
launch autoscroll
font size
0
reset
how to read this tab
guitar tuner
Tab Pro tools
  • play this tab
  • loop segment
  • change instrument
  • show fretboard
  • metronome
Autoscroll
slow
fast
+/-
esc
set tempo
stop
Song: Five to One
Artist: Marilyn Manson
Album: From Highway to Hell
As tabbed by Joe Muggah 

Chorus A (Guitar 1)
e--------------------------------------------------------
B--------------------------------------------------------
G--------------------------------------------------------
D--7----7----7----7--5----7----7----7----7--5------------
A--7----7----7----7--5----7----7----7----7--5------------
E--5----5----5----5--3----5----5----5----5--3------------

Bass-Verse
G--------------------------------------------------------
D--------------------------------------------------------
A--------------------------------------------------------
E--5----5----5----5--3----5----5----5----5--3------------
("Five to one baby...")

Chorus B (Guitar 2)
e--12--10--8h10--8--\---12--10--8h10--8------------------
B---------------------------------------10-------8h10----
G-------------------------------------------9h11---------
D--------------------------------------------------------
A--------------------------------------------------------
E--------------------------------------------------------

Verse (Synthasizer arranged for guitar)
e--------------------------------------------------------
B--------------------------------------------------------
G--0----2--------0-------2-----0----2-------0-----2------
D-------------3------3-------------------3-----3---------
A--------------------------------------------------------
E--------------------------------------------------------
("You'll get old...")

Bass Pre-Chorus
G--------------------------------------------------------
D--------------------------------------------------------
A-------------------0-0-0-0-0-0-0-0----------------------
E--0-0-0-0-0-0-0-0---------------------------------------
("Come on...")

Solo
e-22\20-18--17\15-13--12\10--10-8---------------12^-12^--
B---------------------------------10------8h10-----------
G------------------------------------9h11----------------
D--------------------------------------------------------
A--------------------------------------------------------
E--------------------------------------------------------

(continued)
e-12p10--8h10--8-8-8--12^-12^--12p10--8h10p8--8----------
B-----------------------------------------------10--8----
G--------------------------------------------------------
D--------------------------------------------------------
A--------------------------------------------------------
E--------------------------------------------------------

(continued)
e-12-12-12p10--8h10--8---10p8----------------------------
B-----------------------------h10--10p8------------------
G---------------------------------------9--7h9p7---------
D------------------------------------------------10-7--5-
A--------------------------------------------------------
E--------------------------------------------------------

(continued)
e--------------------------------------------------------
B--------------------------------------------------------
G-----5h7---9--9--9p7-5h7--5---9^---12^---9---9-9-9-9\---
D-5h7-------------------------------12^-------9-9-9-9\---
A--------------------------------------------------------
E--------------------------------------------------------

Bass Bridge 1             Bridge (Synthasizer for guitar)
G-------------------------|------------------------------
D-------------------------|--0--2----------------0--2----
A-------------------------|------------------------------
E-3----5--------3----5----|------------------------------
("The ballroom day is over...")

Bass Bridge 2
G--------------------------------------------------------
D----------------------------5-7-5------------5-7-5------
A--------------------------------------------------------
E-5---3-5---3-5---3-5---3-5---------3-5---3-5--------3-5-

Outro
e-10p8---------------------------------------------------
B------h10--10p8-----------------------------------------
G----------------h9--9p7---------------------------------
D------------------------10-7--5-----5h7--9-9-9p7-5h7--5-
A--------------------------------5h7---------------------
E--------------------------------------------------------

(continued)
e---------------------------------------------8h10-12-10-
B------------------------------------10--10p8------------
G-9^--12--9--9--9------------------9--9------------------
D-----12-----------7--7--10^-7-5h7-----------------------
A--------------------------------------------------------
E--------------------------------------------------------

Chorus A
Bass Verse
Chorus A, B
Bass Verse, Verse
Bass Pre-Chorus
Bass Verse, Solo
Bass Bridge 1, Bridge
Bass Bridge 2
Bass Pre-Chorus
Chorus, Outro

A remake of the good old Doors tune.
===========          Author/Artist: Marilyn Manson
          Title: Five To One
          Album: Disposable Teens Single
          Transcribed by: Distortedfilthbox
          Email: in_the_shadow_of_the_valley_of_death@hotmail.com
          
          This is ONLY the solo for Five To One. 
          This solo is easy once you know all the right notes. 
          There still might be some notes in between that I haven't heard
          so just mess around with it. This is a cover from The Doors.
          
          First Solo. Repeat as needed then slide off at the end.
          ------------------------------------------------------------------------------
          ------16b-15-13-15-13-------------16b-15-13-15--------------------------------
          -----------------------14--12-14----------------------------------------------
          ------------------------------------------------------------------------------
          ------------------------------------------------------------------------------
          ------------------------------------------------------------------------------
              
          The second solo                                     
          
          -----20b-17-------------------------------------------------------------------
          -------------20b-17-15b-13---------------13-15-16b-16b-16b-15-13-15-13--------
          ---------------------------14b-12-12-14---------------------------------------
          ------------------------------------------------------------------------------
          ------------------------------------------------------------------------------
          ------------------------------------------------------------------------------
                                                                                        
          
          ------------------------------------------------------------------------------
          -----16b-16b-16b-15-13-15-13---------16b-16b-16b-15-13-15-13------------------
          ------------------------------14-12---------------------------17b-14----------
          ---------------------------------------------------------------------17b-14---
          ------------------------------------------------------------------------------
          ------------------------------------------------------------------------------
                                                                                        
          
          ------------------------------------------------------------------------------
          ------------------------------------------------------------------------------
          ------------------------------------------------------------12------12-------
          ------------------------10-12-13b-13b-13b-12-10-12-10----14----14-------------
          ----17b-15-12b-10-10-12-------------------------------------------------------
          ------------------------------------------------------------------------------
            
          The third one.
          
          ----20b-17--------------------------------------------------------------------
          -----------20b-17-15b-13-------------13-15-16b-16b-16b-15-13-15-13------------
          -------------------------14-12-12-14--------------------------------14--------
          ------------------------------------------------------------------------------
          -----------------------------------------------------------------------12-----
          ------------------------------------------------------------------------------
                                                                                        
          
          ------------------------------------------------------------------------------
          -----------------------------------------------------------13-16b-15-13-15----
          -------12--------------------------------------14-14----14--------------------
          ----14----14--12----10b-10b--------------10-14-------14-----------------------
          -----------------12---------12--12-10-12--------------------------------------
          ------------------------------------------------------------------------------
                                                                                        
          
          ------------------------------------------------------------------------------
          -13-------13------------------------------------------------------------------
          ----14-14----14-12-------------14-12------------------------------------------
          -------------------14-12----12-------14-12-10----10-13b-12-10-12-10-------10--
          -------------------------15-------------------12--------------------12-12-----
          ------------------------------------------------------------------------------
                                                                                        
          
          ------------------------------------------------------------------------------
          ------------------------------------------------------------------------------
          ---------------------------------------------14---------------------14------
          ---------------------------------------------------------10-------------------
          -12-10-7-5-3--3--3-5b-5-3-5-3-------3-5-7-10-------10-12----12-10-12-----10---
          ------------------------------5-3-5-------------------------------------------
                                                                                        
          
          ------------------------------------------------------------------------------
          ------------------------------------------------------------------------------
          ----------------------------------------------------------14--14--14--14--12--
          ----10-----------10-10-----------10-10----------10-10-------------------------
          -12----12--10-12-------12--10-12-------12-10-12-------12----------------------
          ------------------------------------------------------------------------------
                                                                                        
          
          ------------------------------------------------------------------------------
          -------------------------------------------------------------16b-15-13-15-13--
          -14--14--14--14--12--14--14--14--14--12--14--14--14--14--12-------------------
          ------------------------------------------------------------------------------
          ------------------------------------------------------------------------------
          ------------------------------------------------------------------------------
                                                                                        
          
          ------------------------------------------------------------------------------
          -------13---------------------------------------------------------------------
          -14-14----14-12-------------14-12---------------------------------------------
          ----------------14-12----12-------14-12-10----10--13b-12-10-12-10-------10-10-
          ----------------------15-------------------12---------------------12-12-------
          ------------------------------------------------------------------------------
                                                                                        
          
          ------------------------------------------------------------------------------
          ------------------------------------------------------------------------------
          ------------------------------------------------------------------------------
          --------10--10--------13b-12-10-12-10--------13b-12-10-12-10--------13b-12----
          --10-12---------10-12------------------10-12------------------10-12-----------
          ------------------------------------------------------------------------------
                                                                                        
          
          ------------------------------------------------------------------------------
          ------------------------------------------------------------------------------
          ------------------------------------------------------------------------------
          -10-12-10----10---------------------------------------------------------------
          ----------------12-10--12--12--12--12--10--12--12--12--12--10--12--12--12-----
          ------------------------------------------------------------------------------
                                                                                        
          
          ------------------------------------------------------------------------------
          ------------------------------------------------------------------------------
          ------------------------------------------------------------------------------
          ------------------------------------------------------------------------------
          -12--10--12--12--12--12--10--------------------------------------------------
          ------------------------------------------------------------------------------
             That's all I know. The spacing isn't right. And the ending is kind of weird.
          So I'm not sure that that is right. But at least I got the main parts down.
          I hope you guys get to learn it! Enjoy!
comments
We did not receive enough feedback on this tab! Please rate:
print report bad tab
1 2 3 4 5
I want to post or [tab]
guest
You may want to rate the tab now too:
select rating
Please do not post tabs as comments. Select "correction" instead!