Oops, an error
Loading. Please wait.

Get Your Gunn Tab

version 1
version 1

Whole song

Interactive

4,300 views 1 this week
1 commentread comment
1 2 3 4 5
accurate
x 3
add to favorites
launch autoscroll
font size
0
reset
how to read this tab
guitar tuner
Autoscroll
slow
fast
+/-
esc
set tempo
stop
Help us to improve Ultimate-Guitar.com Take our survey!
×
#----------------------------------PLEASE NOTE---------------------------------#
#This file is the author's own work and represents their interpretation of the #
#song. You may only use this file for private study, scholarship, or research. #
#------------------------------------------------------------------------------##
Subject: TAB: Get your Gunn - Marilyn Manson
Date: Thu, 31 Aug 1995 15:03:58 -0400 (EDT)
From: "Michael Gartley" 

Marilyn Manson
Get Your Gunn
--------------

intro:

e-------------------
b-------------------
g-------------------
d-------------------
a-7/2---2---2---2---
e---0---0---0---0---

e-------------------|------------------
b-------------------|------------------
g-------------------|------------------
d-----2-------------|---2--------------
a-------2---2-1-----|-----2---2-1---5--
e---0-------------3-|-0----------------

During chorus:
E      A#     G    A    G           E          A#      F    G
Psuedo morals work real well on the talk shows for the weak

etc... etc..


From: DieRythmus@aol.com

  Marilyn Manson - Get You Gunn

  Intro:                                Main Riff:
e:------------------------------------|------------|
B:------------------------------------|------------|
G:------------------------------------|------------|
D:------------------------------------|-----2--2--2|
A:------------------------------------|-----2--2--2|
E:12\0--12--0--7--6--3--12\0--7--6--10|7\0--0--0--0|

  Chorus:
e:---------------------------------------------------------------------------|

B:5--5--5-----------------------------------------------------------6--6--6--|

G:4--4--4--3--3--3-----------------------------------------4--4--4--5--5--5--|

D:2--2--2--3--3--3--5--5--5--5--5--5--6--6--5--5--2--2--2--4--4--4--3--3--3--|

A:---------1--1--1--5--5--5--5--5--5--6--6--5--5--2--2--2--2--2--2-----------|

E:------------------3--3--3--3--3--3--4--4--3--3--0--0--0--------------------|


e:------------------|
B:6--6--6--8--8-----|
G:5--5--5--7--7-----|
D:3--3--3--5--5-----|
A:------------------|
E:------------------|

I am really looking for the bassline to this so I can get my band togrther 
and play it.  If ya figure it out, please email me.  Thanx!

Adam Winik --- DieRythmus@aol.com


Suggest correction
What's this?
You can suggest a correction to this tab. Community and Mods will review your correction and vote to approve or reject it.
comments
We did not receive enough feedback on this tab! Please rate:
print report bad tab
1 2 3 4 5
1 comment total.
0 reply
rmwaters3000 452 wrote on June 10 2003, 12:00 am

Both are good but the choruses on both are wrong, bad, wrong, SUCK!

guest
You may want to rate the tab now too:
select rating
Please do not post tabs as comments. Select "correction" instead!