Oops, an error
Loading. Please wait.

Great Big White World bass

version 3
version 3

Whole song

Interactive

3,033 views 6 this week
1 commentread comment
1 2 3 4 5
x 3
add to favorites
×
Save as Personal and add changes to this tab that will be seen only by you. Learn more ›
×
You can save this tab as Personal to edit and correct it or add notes. All changes will be seen only by you. Learn more »
launch autoscroll
font size
0
reset
guitar tuner
backing track
0:00
0:00
edit
Autoscroll
slow
fast
+/-
esc
set tempo
stop
Difficulty
      GREAT BIG WHITE WORLD bass tab

artist:marilyn manson
album:mechanical animals
tabber:julien v
mail:jv1_bass@yahoo.fr
4/4

VERSE
G|------------------:-----------------|
D|------------------:-----------------|
A|10-------11-------:12---------------|
E|-----8--------8---:-----8---*---*---|

BRIDGE
G|----------------|
D|----------------|
A|----------------|
E|6/8-8---8--88-8-|

PRE CHORUS
G|----------------:----------------|
D|----------------:----------------|
A|----------------:----------------|
E|66--6-6-44--4-6-:88-88-88-88-8-8-| x3

G|----------------:----------------|
D|----------------:----------------|
A|----------------:----------------|
E|66--6-6-44--4-6-:8-8-8-8-8-8-8-8-|

CHORUS 1
G|----------------:----------------:----------------:----------------|
D|----------------:----------------:----------------:----------------|
A|----------------:----------------:----------------:----------------|
E|1-1-1-1-1-1-1-1-:4-4-4-4-4-4-4-4-:8-8-8-8-8-8-8-8-:6-6-6-6-6-6-6-6-|

G|----------------:----------------|
D|----------------:----------------|
A|----------------:----------------|
E|4-4-4-4-4-4-4-4-:3-3-3-3-3-3-2-2-|


CHORUS 2
G|----------------:----------------:----------------:----------------|
D|----------------:----------------:----------------:----------------|
A|----------------:----------------:----------------:----------------|
E|1-1-1-1-1-1-1-1-:4-4-4-4-4-4-4-4-:8-8-8-8-8-8-8-8-:6-6-6-6-6-6-6-6-|

G|----------------:----------------:----------------:----------------|
D|----------------:----------------:----------------:----------------|
A|----------------:----------------:----------------:----------------|
E|4-4-4-4-4-4-4-4-:1-1-1-1-1-1-1-1-:4-4-4-4-4-4-4-4-:8-8-8-8-8-8-8-8-|

G|----------------:----------------:----------------|
D|----------------:----------------:----------------|
A|----------------:----------------:----------------|
E|6-6-6-6-6-6-6-6-:4-4-4-4-4-4-4-4-:3-3-3-3-3-3-2-2-|





            
            
Suggest correction
Creating personal tab
Creating personal tab
You can edit any tab online and save it as your Personal.

You can edit, replace or remove any tab part or add personal notes – all changes will be seen only by you.

Personal tabs can be accessed anytime from any device, even offline.
Learn more »
Give kudos to tab author, rate the tab!
1 2 3 4 5
comments
print report bad tab
1 comment total.
-1 reply
cakexandxsodomy 10 Aug 26, 2006 03:34 PM

it doesn't even sound right. the pre-chorus sounds off and the choruses don't match up with the song. so timing isn't right

guest
Wanna post a correction for this tab? Suggest correction