Oops, an error
Loading. Please wait.

Hall Of The Mountain King tab

24,108 views 1 this week
3 commentsread comments
1 2 3 4 5
x 13
add to favorites
×
Save as Personal and add changes to this tab that will be seen only by you. Learn more ›
×
You can save this tab as Personal to edit and correct it or add notes. All changes will be seen only by you. Learn more »
launch autoscroll
font size
0
reset
how to read this tab
guitar tuner
edit
Autoscroll
slow
fast
+/-
esc
set tempo
stop
Author
[Whole Song]

e|-------------------------|
B|-0-2-3-5-7-7--6-6--5-5---|
G|----------7----6----5----|
D|-------------------------|
A|-------------------------|
E|-------------------------|

e|------------7-5-5-5------|
B|-0-2-3-5-7-7---7-7-------|
G|----------7--------------|
D|-------------------------|
A|-------------------------|
E|-------------------------|
Suggest correction
Creating personal tab
Creating personal tab
You can edit any tab online and save it as your Personal.

You can edit, replace or remove any tab part or add personal notes – all changes will be seen only by you.

Personal tabs can be accessed anytime from any device, even offline.
Learn more »
comments
print report bad tab
3 comments total.
+1 reply
wagonburner321 10 Jun 27, 2008 08:27 AM

Dude. this is a crappy version of Halls of the Mountain King!

0 reply
MiniSyner6661 10 Oct 22, 2008 07:53 PM

That last part is wrong its supposed to be
e|-----------7-5---5-|
B|0-2-3-5-7-7---7-7--|
G|---------7-----7---|
D

0 reply
nuguns 10 Dec 10, 2008 03:56 PM

hay wagonburner321 if your going to criticise get the name of the song your mentioning rite.. its In the Hall of the Mountain King

guest
You may want to rate the tab now too:
select rating
Wanna post a correction for this tab? Suggest correction