Oops, an error
Loading. Please wait.

Heart Shaped Glasses bass

version 4
version 4

Whole song

Interactive

466 views 1 this week
no commentswrite comment
1 2 3 4 5
2 more votes to show rating
add to favorites
×
Save as Personal and add changes to this tab that will be seen only by you. Learn more ›
×
You can save this tab as Personal to edit and correct it or add notes. All changes will be seen only by you. Learn more »
launch autoscroll
font size
0
reset
guitar tuner
edit
Autoscroll
slow
fast
+/-
esc
set tempo
stop
Author
Difficulty
Seeing all those lame tabs for such a cool song to play kind of pissed me off. I use to 
it by ear, but here it is, just tabbed it so I don't see anymore deaf moron thinking 
Twiggy.

***CORRECT VERSION***

Tuning : standard

Riff 1 :
G-------------------------------------------------------|
D-------------------------------------------------------|
A-----0-12-0-0-12-0-12-0-0-12--8-8-8-8-8-7-7------------|
E--------------------------------------------8----------|
        ^alternate : this note is also on the D string fret 7, but I'm almost sure they 
it on the A string

Riff 2 :
G-------------------------------------------------------|
D-------------------------------------------------------|
A-----0-12-0-0--0-12-0-0--------------------------------|
E-------------------------------------------------------|

Riff 3 :
G-------------------------------------------------------|
D-------------------------------------------------------|
A----3-3-3-3--5-5-5-5-0-12-0-0--0-12-0-0----------------|
E-------------------------------------------------------|

Riff 4 :
G-------------------------------------------------------|
D-------------------------------------------------------|
A----3-3-3-3--5-5-5-5-7---7---7---7---7---7---7~--------|
E-----------------------7---7---7---7---7---------------|

Riff 5 :
G-------------------------------------------------------|
D-------------------------------------------------------|
A----0-0-0-3-5-----5-7-3-3-5-7-5-3----------------------|
E--------------7-7-----------------7--------------------|


Enjoy!

***tabbed by Vikki Sixx***

            
            
Suggest correction
Creating personal tab
Creating personal tab
You can edit any tab online and save it as your Personal.

You can edit, replace or remove any tab part or add personal notes – all changes will be seen only by you.

Personal tabs can be accessed anytime from any device, even offline.
Learn more »
Give kudos to tab author, rate the tab!
1 2 3 4 5
comments
print report bad tab
guest
You may want to rate the tab now too:
select rating
Wanna post a correction for this tab? Suggest correction