Oops, an error
Loading. Please wait.

I Want To Disappear Tab

version 1
version 1

Whole song

Interactive

2,365 views 3 this week
no commentswrite comment
1 2 3 4 5
please rate
add to favorites
launch autoscroll
font size
0
reset
how to read this tab
guitar tuner
Autoscroll
slow
fast
+/-
esc
set tempo
stop
Help us to improve Ultimate-Guitar.com Take our survey!
×
Wormboy by Marilyn Manson
Guitarist: Daisy Berkowitz
Album: Antichrist Superstar
Dif.: 8
Tabbed by Twiggy5

NOTE: This one is really difficult because it’s a lot of random ***. The verse is a lot of random 
stuff and guitar comes in and out so i’ll match up the lyrics when they come in with gutiar

Intro
G|-4-4-----7-7--|--------|-4-4-----7-7---|-----------|
D|-4-4-3-3-7-7--|-5555---|-4-4-3-3-7-7---|-5--5----5-|
A|-2-2-3-3-5-5--|--------|-2-2-3-3-5-5---|-----------|
E|-----1-1------|--------|-----1-1-------|-----------|
                         nh-----|                      nh--------|

Intro P2 (Gtr. 1)
D|----------8^----------------|
A|-------7------------7--10---|
E|-7h8---------7h8----------0-|
                  ^ bend 1/ 2step

Intro P2 (cont.)
D|----------8^---------------|
A|-------7--------------7----|
E|-7h8---------7h8---------0-|
                 ^ bend 1/ 2step

Intro P2/Bridge P2 (Gtr. 2)
E|-7^p6---------------7^p6---------------|<-- bend 1/2 step
B|-7^-----------------7^-----------------|<--bend 1/2 step
G|----------4^--(4)\-----------7h9p7h9p7-|
                 ^ bend 1/2 step then bring back down to bracketed 4 then slide

Verse (A lot of random shit) (All natural harmonics)
B|--------9-------------------|
G|----------------------------|
D|---------------5--5--5-5-5--|
    Already there...

Verse (cont.)
B|------------9-------| Don’t let ring out to long
         feelings

Verse (cont.)
B|------------9-------| Don’t let ring out to long
         destroy

Verse (cont.)
B|--------9----------------|
G|-------------------------|
D|------------5--5--5-5-5--|
            has got....

Pre-Chorus (“I know I’m slipping...”)
D|----------------5-5-5-5-5-5-5-5---|--------------------|
                  NH-------------------|

Chorus (Gtr. 1) (“Oh no it is...”)
G|-4-4-----7-7------|
D|-4-4-3-3-7-7-7-6--| on last repeat slide down neck
A|-2-2-3-3-5-5-7-6--|
E|-----1-1-----5-4--|

Fill 1
B|-------------------------9--9--9--9---|
                              NH------------|

Verse 2 (All natural harmonics)
G|-----------5-5-5-5-5-5-5-|
             heaven...

Verse 2 (cont.)
B|---------5-5-5-5-5-5-5-|
G|---------5-5-5-5-5-5-5-|
           hell.....

Verse 2 (cont.)
B|------------------9--9--9--|------------------9--9--9--|
               heaven....

Verse 2 P2 (Gtr. 2) 9”When will you...”)(all 1/2 stepbends
B|-9^-----------------|-------------------------|-9^-----|
        now that you...                     the world...

Chorus (Gtr. 2)
E|-7\5----------------|
G|-------4^--7/9\7-|
            ^ 1/2 step

Bridge (Unplugged Electric Guitar 4)
B|--------7-6-6-6-|
G|-4-4-4-6-5-5-5-|
D|-4-4-4-4-3-3-3-|
A|-2-2-2---------|

Bridge P2 (Gtr. 3)
E|-3--0---0--6^----3--0-----0---------| all 1/2 step bends
B|-------1----------------1-----------|
G|--------------------------------4^--|

Chorus 3
G|-4-4-----7-7------|-4-4-7-7-----10-10-9-9--|
D|-4-4-3-3-7-7-7-6--|-4-4-7-7-7-7-10-10-9-9--|
A|-2-2-3-3-5-5-7-6--|-2-2-5-5-7-7--8--8-7-7--|
E|-----1-1-----5-4--|---------5-5------------|

Song Structure: -
Intro
Intro P2 (Gtr. 1)/Intro P2 (Gtr. 2)
Verse (“When will you realize...”)
Pre-Chorus
Chorus
Fill 1
Verse 2
Verse 2 P2
Pik Scrape (“The worm...”)
Chorus (Gtr. 1)/Chorus (Gtr. 2)
Bridge
Bridge P2 (Gtr. 1)/Bridge P2 (Gtr. 2)
Chorus 3 (Gtr. 1)/Chorus 2 (Gtr. 2)
Chorus 3 (Gtr. 1)/Chorus 2 (Gtr. 2)/Bridge P2 (Gtr. 3)
Bridge P2

Hey there ya go... I was reading an old guitar world mag with Manson in it and he was 
saying for  the bridge of wormboy they just recorded the electric guitar unplugged 
with a tape recorder... So  there ya go. More detailed than others out there. 
Any comments, corrections or suggestions email me at ToXic345x@yahoo.ca
===========          MARILYN MANSON/ I wanna disappear            
          this song really shows what glam/shock
          rock is. I reccomend playing this song
          if you have a band.
          
          INTRO/ main riff
          e-----------------------------------/---------------
          b-----------------------------------/-9-9-9-9-9-9---
          g-----------------------------------/---------------
          d-2-2-2-5-2-2-2---------------------/---------------
          a-2-2-2-5-2-2-2---11-11-11-11-11-11-/---------------
          E-0-0-0-3-0-0-0---------------------/---------------
                             (slowly bend)      (slowly bend)
          BEFORE CHORUS
          e-----------------------------------
          b-----------------------------------
          g-----------------------------------
          d-7-7-7-7-7-7-7-7---4-4-4-4-4-4-4-4-
          a-7-7-7-7-7-7-7-7---4-4-4-4-4-4-4-4-
          E-5-5-5-5-5-5-5-5---2-2-2-2-2-2-2-2-
          pm==================================/
          
          
          
          CHORUS
          e------------------/--------------------------------------------------------
          b------------------/--------------------------------------------------------
          g-8-8-6-8--11-11-8-/9-9-9-9-9-9-9-9--6-6-6-6-6-6-6-6--8-8-8-8-8-8-8-8-------
          d-8-8-6-8--11-11-8-/9-9-9-9-9-9-9-9--6-6-6-6-6-6-6-6--8-8-8-8-8-8-8-8-------
          a-6-6-4-6--9--9--6-/7-7-7-7-7-7-7-7--4-4-4-4-4-4-4-4--6-6-6-6-6-6-6-6-------
          E---------------------------------------------------------------------------
          
          e---------------------------------------------------
          b---------------------------------------------------
          g-4-4-4-4-4-4-4-4--6-6-6-6-6-6-6-6------------------
          d-4-4-4-4-4-4-4-4--6-6-6-6-6-6-6-6--7-7-7-7-7-7-7-7-
          a-2-2-2-2-2-2-2-2--4-4-4-4-4-4-4-4--7-7-7-7-7-7-7-7-
          E-----------------------------------5-5-5-5-5-5-5-5-
          
          solo thing after CHORUS           SOLO
          e----------------------------/-----------------
          b-9b-------------------------/-----------------
          g---8-6-8-8------------------/-----------------
          d----------------------------/-x-x----6-7------REPEAT
          a----------------------------/-x-x-/9----------
          E----------------------------/-----------------
                                   (pick scrapes)
          E-MAIL me if you have any questions
          SK8Rboy5@aol.com I will be glad to help
Suggest correction new What's this?
You can suggest a correction to this tab. Community and Mods will review your correction and vote to approve or reject it.
comments
We did not receive enough feedback on this tab! Please rate:
print report bad tab
1 2 3 4 5
guest
You may want to rate the tab now too:
select rating
Please do not post tabs as comments. Select "correction" instead!