Oops, an error
Loading. Please wait.

If I Was Your Vampire Tab

version 1
version 1

Whole song

Interactive

57,738 views 33 this week
4 commentsread comments
1 2 3 4 5
x 6
add to favorites
launch autoscroll
font size
0
reset
how to read this tab
guitar tuner
Autoscroll
slow
fast
+/-
esc
set tempo
stop
Help us to improve Ultimate-Guitar.com Take our survey!
×
Author
Difficulty
novice
From the New album Eat Me Drink Me

e|--------------------------------------------------|
B|--------------------------------------------------|
G|--------------------------------------------------|
D|--------------------------------------------------|
A|---2---3----2---3------2---3--2--0--5--3--2-------|
E|-0---0----0---0------0---0---0--0--0--0--0--------|    4 x


e|--------------------------------------------------|
B|--------------------------------------------------|
G|---4---5----4---5------4---5-4-2-7-5-4------------|
D|-2---2----2---2------2---2------------------------|
A|--------------------------------------------------|
E|--------------------------------------------------|  2 x


e|--------------------------------------------------|
B|--------------------------------------------------|
G|--------------------------------------------------|
D|--------------------------------------------------|
A|---2---3----2---3------2---3--2--0--5--3--2-------|
E|-0---0----0---0------0---0---0--0--0--0--0--------|    3 x


e|--------------------------------------------------|
B|--------------------------------------------------|
G|---4---5----4---5------4---5-4-2-7-5-4------------|
D|-2---2----2---2------2---2------------------------|
A|--------------------------------------------------|
E|--------------------------------------------------|  2 x 


e|-10-10-10-10-10-----------------------------------|
B|-11-11-11-11-11-13-13-13-13-13-11-11-11-11-11-----|
G|----------------14-14-14-14-14-12-12-12-12-12-----|
D|--------------------------------------------------|
A|--------------------------------------------------|
E|--------------------------------------------------|  2 x  

e|--------------------------------------------------|
B|--------------------------------------------------|
G|--------------------------------------------------|
D|--------------------------------------------------|
A|---2---3----2---3------2---3--2--0--5--3--2-------|
E|-0---0----0---0------0---0---0--0--0--0--0--------|  1 x

e|--------------------------------------------------|
B|--------------------------------------------------|
G|--------------------------------------------------|
D|--------------------------------------------------|
A|---2---3----2---3---2---3--2--0--5--3--2----2---2-|
E|-0---0----0---0---0---0---0--0--0--0--0---0---0---|  1 x

e|--------------------------------------------------|
B|--------------------------------------------------|
G|---4---5----4---5------4---5-4-2-7-5-4------------|
D|-2---2----2---2------2---2------------------------|
A|--------------------------------------------------|
E|--------------------------------------------------|  4 x

e|--------------------------------------------------|
B|--------------------------------------------------|
G|-4444444-4/7-66666666-----------------------------|
D|-2222222-2/5-44444444-----------------------------| Repeat Till End
A|--------------------------------------------------| 
E|--------------------------------------------------|  


Suggest correction
comments
print report bad tab
4 comments total. Showing first comments.
0 reply
syslipornson D 57 Aug 31, 2007 02:44 PM

Ending is wrong
It is B string 8 fret to 7 fret then G string 9 fret to 8 frent then 9 fret back to B string 8 fret 7 fret then D string 10 fret 9fret.
Then do the same but last 2 notes are high E string 8 fret 7 fret.
Repeat this 3 times.
(each note needs to be strumed multipule times)

0 reply
jonathandavis12 10 Apr 13, 2008 08:03 PM

awesome song, manson rules

0 reply
themetal2010 10 Apr 25, 2010 01:32 AM

e|--------------------------------------------------|
B|--------------------------------------------------|
G|--------------------------------------------------|
D|--------------------------------------------------|
A|---2---3----2---3------2---3--2--0--5--3--2-------|
E|-0---0----0---0------0---0---0--0--0--0--0--------|
there is an extra not needed 2 ^ before th 0

guest
You may want to rate the tab now too:
select rating
Wanna post a correction for this tab? Suggest correction