Oops, an error
Loading. Please wait.

Irresponsible Hate Anthem tab

version 5
version 5

Whole song

Interactive

7,106 views 1 this week
2 commentsread comments
1 2 3 4 5
x 4
add to favorites
×
Save as Personal and add changes to this tab that will be seen only by you. Learn more ›
×
You can save this tab as Personal to edit and correct it or add notes. All changes will be seen only by you. Learn more »
launch autoscroll
font size
0
reset
how to read this tab
guitar tuner
backing track
0:00
0:00
edit
Autoscroll
slow
fast
+/-
esc
set tempo
stop
Band      : Marilyn Manson
Song      : Irresponsible Hate Anthem
Album     : Anti-Christ Superstar
Guitarist : Daisy Berkowitz (Twiggy Ramirez actually wrote it.)
Tuning    : Drop D

Main / Chorus Riff :

e|-----------------------------------------|
b|-----------------------------------------|
g|-----------------------------------------|
d|-4-4-4--7-7-7--9-9--10-10-10--9-9-9--7-7-|
a|-4-4-4--7-7-7--9-9--10-10-10--9-9-9--7-7-|
D|-4-4-4--7-7-7--9-9--10-10-10--9-9-9--7-7-|

Main / Chorus Riff Cont.:

e|----------------------------|
b|----------------------------|
g|----------------------------|
d|-4-4-4--7-7-7--9-9--2-2-2-3-|
a|-4-4-4--7-7-7--9-9--2-2-2-3-|
D|-4-4-4--7-7-7--9-9--2-2-2-3-|

Verse : (On Anti-christ superstar version, if playing last tour on earth version play 
doesn't make much of a difference but I think this way sounds cool.)

e|---------------|
b|---------------|
g|---------------| Not exact ammount, just play it as fast as you can until
d|-0-0-0-0-0-0-0-| you get to the pre chorus.
a|-0-0-0-0-0-0-0-|
D|-0-0-0-0-0-0-0-|
pm . . . . . . .

Pre-Chorus :

e|-----------------------| Again not exact ammount, just listen to the CD.
b|-----------------------| Alternativley, and this sounds really cool, keep
g|-6----6----6----6------| on playing the verse along with the pre-chorus so
d|-----------------------| when you're not playing the note you pick daD open
a|-----------------------| an palm muted,that may sound confusing but try it!
D|-----------------------|

Pro-Chorus :
                      1st time          2nd time
e|--------------------|-----------------|-------|
b|--------------------|-----------------|-------|
g|--------------------|-----------------|-------|
d|-4--10--9--7--9--7--|--4--10--9--7--9-|-4-----|
a|-4--10--9--7--9--7--|--4--10--9--7--9-|-4-----|
D|-4--10--9--7--9--7--|--4--10--9--7--9-|-4-----|

Interlude :

e|--------------------------------------|
b|--------------------------------------|
g|-6--7--6--7--6--7----6--7--6--7--8--7-|
d|--------------------------------------|
a|--------------------------------------|
D|--------------------------------------|

Interlude Pt 2 :

e|-6-6-6--7-7-7--6-------8-8-8--7-7-7--8-|
b|-6-6-6--7-7-7--6-------8-8-8--7-7-7--8-|
g|-6-6-6--7-7-7--6-------8-8-8--7-7-7--8-|
d|---------------------------------------|
a|---------------------------------------|
D|---------------------------------------|

Song Structure :

Main Riff 2x
Verse
Pre-Chorus
Chorus 2x
Verse
Pre-Chorus
Chorus 2x
Pro-Chorus 2x
Interlude (a few times)
Interlude Pt 2
Pre-Chorus
Chorus 2x
Pro-Chorus 2x
Interlude (a few times and on the last time do a massive slide at the end)
Chorus 2x
Pro Chorus 2x (miss off the 2nd time bit just play it all the way through with the first time bit.)

There ya go, My first tab but I know its 100% perfect
Any comments e-mail randomfacelessguy@hotmail.co.uk
Suggest correction
Creating personal tab
Creating personal tab
You can edit any tab online and save it as your Personal.

You can edit, replace or remove any tab part or add personal notes – all changes will be seen only by you.

Personal tabs can be accessed anytime from any device, even offline.
Learn more »
comments
print report bad tab
2 comments total.
0 reply
Thesneakyhipste 33 Aug 24, 2014 12:13 PM, edited at 04:13 pm

I'm pretty sure the pro chorus goes like this. 2nd time.e|--------------------|-----------------|---------------------|b|--------------------|-----------------|---------------------|g|--------------------|-----------------|---------------------|d|-4--10--9--7--9--7--|--4--10--9--7--9-|-2--2--2--2--2--3--4-|a|-4--10--9--7--9--7--|--4--10--9--7--9-|-2--2--2--2--2--3--4-|D|-4--10--9--7--9--7--|--4--10--9--7--9-|-2--2--2--2--2--3--4-|

guest
You may want to rate the tab now too:
select rating
Wanna post a correction for this tab? Suggest correction