Oops, an error
Loading. Please wait.

Last Day On Earth Chords

version 1
version 1

Acoustic

Interactive

12,931 views 9 this week
2 commentsread comments
1 2 3 4 5
1 last vote to show rating
add to favorites
launch autoscroll
font size
0
reset
transpose
0
reset
display chords
guitar tuner
backing track
0:00
0:00
×
Best way to learn
"Last Day On Earth"
Autoscroll
slow
fast
+/-
esc
set tempo
stop
"Last Day On Earth"
Marilyn Manson
Album: The Last Tour On Earth

Standard Tuning
Acoustic Guitar

riff 1
e------------9--------9--------------9-----|
B---5--7--------7--------7--5--7-----------|
G---------0--------0--------------0--------|
D------------------------------------------|
A------------------------------------------|
E------------------------------------------|

Rhythm Fig. 1
Bmbar     Abar     Em
Bmbar     Abar     Em
Bmbar     Abar     Em
Dbar      Cmbar    Bmbar

Rhythm Fig. 2
Am     G     Fbar     G
Am     G     Em+7

Chords
Bmbar - x244xx
Abar  - x02200
Em    - 022000
Dbar  - x57700
Cmbar - x35500
Am    - x02210
G     - 230033
Fbar  - 133000
Em+7  - 022030

-staind_d@hotmail.com
Suggest correction
Give kudos to tab author, rate the tab!
1 2 3 4 5
comments
print report bad tab
2 comments total.
0 reply
kakinzinholopes 10 Apr 27, 2017 04:59 PM, edited at 09:00 pm

E|---0-----9------9----0-----9-----9------|B|-----7-----7------7----7-----7----------|G|-------0-----0-----------0-----0--------|D|----------------------------------------|i preffer this riff

0 reply
kakinzinholopes 10 Apr 27, 2017 05:00 PM

E|---0-----9------9----0-----9-----9------|
B|-----7-----7------7----7-----7----------|
G|-------0-----0-----------0-----0--------|
D|----------------------------------------|

i preffer this riff*

guest
You may want to rate the tab now too:
select rating
Wanna post a correction for this tab? Suggest correction