Oops, an error
Loading. Please wait.

Leave A Scar Tab

version 1
version 1

Whole song

Interactive

17,307 views 37 this week
no commentswrite comment
1 2 3 4 5
excellent!
x 3
add to favorites
launch autoscroll
font size
0
reset
how to read this tab
guitar tuner
Tab Pro tools
  • play this tab
  • loop segment
  • change instrument
  • show fretboard
  • metronome
×
Best way to learn
"Leave A Scar"
Autoscroll
slow
fast
+/-
esc
set tempo
stop
Contributor
-------------------------------------------------------------------------------
                             Leave A Scar - Marilyn Manson
-------------------------------------------------------------------------------
Tabbed by: ironmanben
Email: superclam500@yahooc.com

Tuning: e B G D A E

riff 1 x2
e|--------------------------------------------------------------------------|
B|--------------------------------------------------------------------------|
G|--------------------------------------------------------------------------|
D|-5-2-5-5-2--2--5-5-2--2--5-5-2--2--5-5-7----------------------------------|
A|-5-2-5-5-2--2--5-5-2--2--5-5-2--2--5-5-7----------------------------------|
E|-3-0-3-3-0--0--3-3-0--0--3-3-0--0--3-3-5----------------------------------|

play this over riff 1 the second time only:
e|--------------------------------------------------------------------------|
B|--------------------------------------------------------------------------|
G|--------------------------------------------------------------------------|
D|----5-5-2-0-2-0-2-525-2-0-2-0-2-525-2-0-2-0-2-525-7-55--------------------|
A|--------------------------------------------------------------------------|
E|--------------------------------------------------------------------------|

guitar is silent for the verse.

riff 1 x2

pre-chorus:
             D maj        G maj D maj C maj
e|-----------2~-2-------------3~--2~--0~-------------------------------------|
B|-----------3~-3-------------0~--3~--1~-------------------------------------|
G|-----------2~-2-------------0~--2~--0~-------------------------------------|
D|-5~--5-----0~-0---2~---2----0~--0~--2~-------------------------------------|
A|-5~--5------------2~---2----2~------3-~------------------------------------|
E|-3~--3-0--------0-0~---0-0--3~---------------------------------------------|
The power chords here are correct, but the E power chord could also be played as the E minor chord.

riff 2 x2
e|---------------------------------------------------------------------------|
B|---------------------------------------------------------------------------|
G|---------------------------------------------------------------------------|
D|--5-2-5-7-5-2-5-2--2-5-7-5-2-5-2--2-5-7-5-2-5-2--2-5-7-5-7-----------------|
A|--5-2-5-7-5-2-5-2--2-5-7-5-2-5-2--2-5-7-5-2-5-2--2-5-7-5-7-----------------|
E|--3-0-3-5-3-0-3-0--0-3-5-3-0-3-0--0-3-5-3-0-3-0--0-3-5-3-5-----------------|

play this again, but this time, play it after the riff has been done twice.  (This time riff 2.)
x1
e|--------------------------------------------------------------------------|
B|--------------------------------------------------------------------------|
G|--------------------------------------------------------------------------|
D|----5-5-2-0-2-0-2-525-2-0-2-0-2-525-2-0-2-0-2-525-7-55--------------------|
A|--------------------------------------------------------------------------|
E|-0------------------------------------------------------------------------|

verse 2 x2
This I'm not sure about.  Email me any fixes.
e|-0-------------------------------------------------------------------------|
B|-0---5--8---5-3-5-1--------------------------------------------------------|
G|-0-------------------------------------------------------------------------|
D|-2-------------------------------------------------------------------------|
A|-2-------------------------------------------------------------------------|
E|-0-------------------------------------------------------------------------|

riff 1 x2
pre-chorus
riff 2 x4
riff 1 x2

play this over riff 1 twice
e|--------------------------------------------------------------------------|
B|--------------------------------------------------------------------------|
G|-9--8-7------------9------------------------------------------------------|
D|----------7---10----------------------------------------------------------|
A|--------------------------------------------------------------------------|
E|--------------------------------------------------------------------------|

riff 2x4


| /  slide up
| \  slide down
| h  hammer-on
| p  pull-off
| ~  vibrato
| +  harmonic
| x  Mute note
===============================================================================
comments
We did not receive enough feedback on this tab! Please rate:
print report bad tab
1 2 3 4 5
I want to post or [tab]
guest
You may want to rate the tab now too:
select rating
Please do not post tabs as comments. Select "correction" instead!